  0
SECTION
  2
HEADER
  9
$ACADVER
  1
AC1009
  9
$INSBASE
 10
0
 20
0
 30
0
  9
$EXTMIN
 10
0
 20
0
  9
$EXTMAX
 10
2378
 20
1682
  9
$LIMMIN
 10
0
 20
0
  9
$LIMMAX
 10
2378
 20
1682
  9
$LTSCALE
 40
1
  0
ENDSEC
  0
SECTION
  2
TABLES
  0
TABLE
  2
LTYPE
 70
     9
  0
LTYPE
  2
CONTINUOUS
 70
    64
  3
実線
 72
    65
 73
     0
 40
0.0
  0
LTYPE
  2
DASHED1
 70
    64
  3
--  --  --  --  --  --  --  --  
 72
    65
 73
     2
 40
2.5
 49
1.25
 49
-1.25
  0
LTYPE
  2
DASHED2
 70
    64
  3
----    ----    ----    ----    
 72
    65
 73
     2
 40
5.0
 49
2.5
 49
-2.5
  0
LTYPE
  2
DASHED3
 70
    64
  3
------  ------  ------  ------  
 72
    65
 73
     2
 40
5.0
 49
3.75
 49
-1.25
  0
LTYPE
  2
CENTER1
 70
    64
  3
----- - ----- - ----- - ----- - 
 72
    65
 73
     4
 40
10.0
 49
6.25
 49
-1.25
 49
1.25
 49
-1.25
  0
LTYPE
  2
CENTER2
 70
    64
  3
----------  --  ----------  --  
 72
    65
 73
     4
 40
20.0
 49
12.5
 49
-2.5
 49
2.5
 49
-2.5
  0
LTYPE
  2
PHANTOM1
 70
    64
  3
--- - - --- - - --- - - --- - - 
 72
    65
 73
     6
 40
10.0
 49
3.25
 49
-1.25
 49
1.25
 49
-1.25
 49
1.25
 49
-1.25
  0
LTYPE
  2
PHANTOM2
 70
    64
  3
--------  -  -  --------  -  -  
 72
    65
 73
     6
 40
20.0
 49
10.0
 49
-2.5
 49
1.25
 49
-2.5
 49
1.25
 49
-2.5
  0
LTYPE
  2
DOT
 70
    64
  3
-   -   -   -   -   -   -   -   
 72
    65
 73
     2
 40
2.5
 49
0.625
 49
-1.875
  0
LTYPE
  2
DUMMY
 70
    64
  3
ダミー
 72
    65
 73
     0
 40
0.0
  0
LTYPE
  2
RAND1
 70
    64
  3
ランダム線1
 72
    65
 73
     4
 40
10.0
 49
1.0
 49
-2.0
 49
3.0
 49
-4.0
  0
LTYPE
  2
RAND2
 70
    64
  3
ランダム線2
 72
    65
 73
     4
 40
14.0
 49
2.0
 49
-3.0
 49
4.0
 49
-5.0
  0
LTYPE
  2
RAND3
 70
    64
  3
ランダム線3
 72
    65
 73
     4
 40
18.0
 49
3.0
 49
-4.0
 49
5.0
 49
-6.0
  0
LTYPE
  2
RAND4
 70
    64
  3
ランダム線4
 72
    65
 73
     4
 40
22.0
 49
4.0
 49
-5.0
 49
6.0
 49
-7.0
  0
LTYPE
  2
RAND5
 70
    64
  3
ランダム線5
 72
    65
 73
     4
 40
26.0
 49
5.0
 49
-6.0
 49
7.0
 49
-8.0
  0
LTYPE
  2
LONG1
 70
    64
  3
----------  --  ----------  --  
 72
    65
 73
     4
 40
40.0
 49
32.5
 49
-2.5
 49
2.5
 49
-2.5
  0
LTYPE
  2
LONG2
 70
    64
  3
--------  -  -  --------  -  -  
 72
    65
 73
     6
 40
40.0
 49
30.0
 49
-2.5
 49
1.25
 49
-2.5
 49
1.25
 49
-2.5
  0
LTYPE
  2
LONG3
 70
    64
  3
+++++++++++++++..+++++++++++++++
 72
    65
 73
     2
 40
40.0
 49
37.5
 49
-2.5
  0
LTYPE
  2
LONG4
 70
    64
  3
+++++++++++++++..+++++++++++++++
 72
    65
 73
     2
 40
80.0
 49
75.0
 49
-5.0
  0
LTYPE
  2
LONG5
 70
    64
  3
----------  --  ----------  --  
 72
    65
 73
     4
 40
60.0
 49
37.5
 49
-7.5
 49
7.5
 49
-7.5
  0
LTYPE
  2
dashed
 70
   64
  3
-------   -------------   ------
 72
   65
 73
    2
 40
7.5
 49
6
 49
-1.5
  0
LTYPE
  2
dashed_spaced
 70
   64
  3
----        --------        ----
 72
   65
 73
    2
 40
12
 49
6
 49
-6
  0
LTYPE
  2
long_dashed_dotted
 70
   64
  3
------------- --- --------------
 72
   65
 73
    4
 40
15.25
 49
12
 49
-1.5
 49
0.25
 49
-1.5
  0
LTYPE
  2
long_dashed_double-dotted
 70
   64
  3
----------- --- --- ------------
 72
   65
 73
    6
 40
17
 49
12
 49
-1.5
 49
0.25
 49
-1.5
 49
0.25
 49
-1.5
  0
LTYPE
  2
long_dashed_triplicate-dotted
 70
   64
  3
--------- --- --- --- ----------
 72
   65
 73
    8
 40
18.75
 49
12
 49
-1.5
 49
0.25
 49
-1.5
 49
0.25
 49
-1.5
 49
0.25
 49
-1.5
  0
LTYPE
  2
dotted
 70
   64
  3
   -       -       -       -    
 72
   65
 73
    2
 40
1.75
 49
0.25
 49
-1.5
  0
LTYPE
  2
chain
 70
   64
  3
-------------- -- --------------
 72
   65
 73
    4
 40
18.5
 49
12
 49
-1.5
 49
3.5
 49
-1.5
  0
LTYPE
  2
chain_double_dash
 70
   64
  3
------------ -- -- -------------
 72
   65
 73
    6
 40
23.5
 49
12
 49
-1.5
 49
3.5
 49
-1.5
 49
3.5
 49
-1.5
  0
LTYPE
  2
dashed_dotted
 70
   64
  3
-----------     -     ----------
 72
   65
 73
    4
 40
9.25
 49
6
 49
-1.5
 49
0.25
 49
-1.5
  0
LTYPE
  2
double-dashed_dotted
 70
   64
  3
------   -----------   -   -----
 72
   65
 73
    6
 40
16.75
 49
6
 49
-1.5
 49
6
 49
-1.5
 49
0.25
 49
-1.5
  0
LTYPE
  2
dashed_double-dotted
 70
   64
  3
---------    -    -    ---------
 72
   65
 73
    6
 40
11
 49
6
 49
-1.5
 49
0.25
 49
-1.5
 49
0.25
 49
-1.5
  0
LTYPE
  2
double-dashed_double-dotted
 70
   64
  3
-----   ---------   -   -   ----
 72
   65
 73
    8
 40
18.5
 49
6
 49
-1.5
 49
6
 49
-1.5
 49
0.25
 49
-1.5
 49
0.25
 49
-1.5
  0
LTYPE
  2
dashed_triplicate-dotted
 70
   64
  3
-------    -    -    -    ------
 72
   65
 73
    8
 40
12.75
 49
6
 49
-1.5
 49
0.25
 49
-1.5
 49
0.25
 49
-1.5
 49
0.25
 49
-1.5
  0
LTYPE
  2
double-dashed_triplicate-dotted
 70
   64
  3
-----  ---------  -  -  -  -----
 72
   65
 73
   10
 40
20.25
 49
6
 49
-1.5
 49
6
 49
-1.5
 49
0.25
 49
-1.5
 49
0.25
 49
-1.5
 49
0.25
 49
-1.5
  0
LTYPE
  2
undefined
 70
   64
  3
--------------------------------
 72
   65
 73
    0
 40
0
  0
ENDTAB
  0
TABLE
  2
STYLE
  5
3
100
AcDbSymbolTable
 70
     1
  0
STYLE
  5
10
100
AcDbSymbolTableRecord
100
AcDbTextStyleTableRecord
  2
STANDARD
 70
     0
 40
0.0
 41
1.0
 50
0.0
 71
     0
 42
0.2
  3
txt
  4
bigfont.shx
  0
STYLE
  5
26
100
AcDbSymbolTableRecord
100
AcDbTextStyleTableRecord
  2
TATEGAKI
 70
    68
 40
0.0
 41
1.0
 50
0.0
 71
     0
 42
1.0
  3
txt
  4
bigfont.shx
  0
ENDTAB
  0
TABLE
  2
LAYER
 70
    2
  0
LAYER
  2
_0-0_
 70
   64
 62
    7
  6
CONTINUOUS
  0
LAYER
  2
ADD_LINE
 70
   64
 62
    7
  6
CONTINUOUS
  0
ENDTAB
  0
ENDSEC
  0
SECTION
  2
BLOCKS
  0
ENDSEC
  0
SECTION
  2
ENTITIES
  0
LINE
  8
_0-0_
  6
CONTINUOUS
 62
    7
 10
873.92549915611255
 20
1246.541307509626
 11
899.48391998612408
 21
1272.0997283396375
  0
LINE
  8
_0-0_
  6
CONTINUOUS
 62
    4
 10
1288.6453775572627
 20
542.00111678473809
 11
1288.6453775572627
 21
481.68774937988769
  0
LINE
  8
_0-0_
  6
CONTINUOUS
 62
    7
 10
1706.8525777203677
 20
1633.3565543671132
 11
1706.8525777203677
 21
167.53106997205509
  0
LINE
  8
_0-0_
  6
CONTINUOUS
 62
    7
 10
672.13606690525205
 20
567.53106997205509
 11
1706.8525777203677
 21
567.53106997205509
  0
LINE
  8
_0-0_
  6
CONTINUOUS
 62
    7
 10
672.13606690525205
 20
167.53106997205509
 11
1706.8525777203677
 21
167.53106997205509
  0
LINE
  8
_0-0_
  6
CONTINUOUS
 62
    7
 10
672.13606690525205
 20
627.53106997205509
 11
1706.8525777203677
 21
627.53106997205509
  0
LINE
  8
_0-0_
  6
CONTINUOUS
 62
    7
 10
1189.4943223128098
 20
627.53106997205509
 11
1189.4943223128098
 21
167.53106997205509
  0
LINE
  8
_0-0_
  6
CONTINUOUS
 62
    7
 10
672.13606690525205
 20
1633.3565543671132
 11
672.13606690525205
 21
167.53106997205509
  0
LINE
  8
_0-0_
  6
CONTINUOUS
 62
    7
 10
1093.3410852713164
 20
772.9922480620146
 11
1373.3410852713173
 21
1052.9922480620155
  0
LINE
  8
_0-0_
  6
CONTINUOUS
 62
    7
 10
1086.2700174594524
 20
772.99224806201551
 11
1366.2700174594524
 21
1052.9922480620146
  0
LINE
  8
_0-0_
  6
CONTINUOUS
 62
    7
 10
873.92549915611346
 20
779.85083192650677
 11
1147.0669152916221
 21
1052.9922480620146
  0
LINE
  8
_0-0_
  6
CONTINUOUS
 62
    7
 10
873.92549915611255
 20
786.92189973837071
 11
1139.9958474797563
 21
1052.9922480620146
  0
LINE
  8
_0-0_
  6
CONTINUOUS
 62
    7
 10
873.92549915611255
 20
793.99296755023647
 11
1132.9247796678924
 21
1052.9922480620146
  0
LINE
  8
_0-0_
  6
CONTINUOUS
 62
    7
 10
873.92549915611346
 20
1006.125001906202
 11
1023.9254991561126
 21
1156.1250019062011
  0
LINE
  8
_0-0_
  6
CONTINUOUS
 62
    7
 10
873.92549915611255
 20
1013.1960697180659
 11
1023.9254991561135
 21
1163.1960697180668
  0
LINE
  8
_0-0_
  6
CONTINUOUS
 62
    7
 10
873.92549915611255
 20
1020.2671375299308
 11
1023.9254991561126
 21
1170.2671375299308
  0
LINE
  8
_0-0_
  6
CONTINUOUS
 62
    7
 10
1013.5056235992275
 20
1268.1180027107077
 11
1023.9254991561126
 21
1257.3279057056282
  0
LINE
  8
_0-0_
  6
CONTINUOUS
 62
    4
 10
1016.1377012032914
 20
1274.0297458012049
 11
1029.9254991561124
 21
1259.7520630606389
  0
LINE
  8
_0-0_
  6
CONTINUOUS
 62
    7
 10
1223.9254991561124
 20
872.99224806201551
 11
1523.9254991561124
 21
872.99224806201551
  0
LINE
  8
_0-0_
  6
CONTINUOUS
 62
    7
 10
1223.9254991561124
 20
872.99224806201551
 11
1223.9254991561124
 21
772.99224806201551
  0
LINE
  8
_0-0_
  6
CONTINUOUS
 62
    7
 10
1405.4731196272828
 20
872.99224806201551
 11
1523.9254991561133
 21
991.44462759084604
  0
LINE
  8
_0-0_
  6
CONTINUOUS
 62
    7
 10
1412.5441874391477
 20
872.99224806201551
 11
1523.9254991561124
 21
984.37355977898028
  0
LINE
  8
_0-0_
  6
CONTINUOUS
 62
    7
 10
1419.6152552510125
 20
872.99224806201551
 11
1523.9254991561133
 21
977.30249196711543
  0
LINE
  8
_0-0_
  6
CONTINUOUS
 62
    7
 10
1079.1989496475876
 20
772.99224806201551
 11
1359.1989496475876
 21
1052.9922480620155
  0
CIRCLE
  8
_0-0_
  6
DASHED2
 62
    1
 10
951.16433613602487
 20
1269.5458920707845
 40
94.513505632925799
  0
LINE
  8
_0-0_
  6
CONTINUOUS
 62
    4
 10
1110.0951668402226
 20
395.81267592005338
 11
1110.0951668402226
 21
252.65735719276404
  0
LINE
  8
_0-0_
  6
CONTINUOUS
 62
    7
 10
1096.5951668402226
 20
252.65735719276404
 11
1096.5951668402226
 21
390.35832187127949
  0
LINE
  8
_0-0_
  6
CONTINUOUS
 62
    4
 10
1079.0726214463753
 20
427.93746208632751
 11
1110.0951668402226
 21
395.81267592005338
  0
LINE
  8
_0-0_
  6
CONTINUOUS
 62
    7
 10
1073.1504468372314
 20
414.63604013270947
 11
1096.5951668402226
 21
390.35832187127949
  0
LINE
  8
_0-0_
  6
CONTINUOUS
 62
    7
 10
759.09516684022503
 20
334.26867077688462
 11
847.34774045619281
 21
422.5212443928524
  0
LINE
  8
_0-0_
  6
CONTINUOUS
 62
    7
 10
759.09516684022276
 20
350.17857335357917
 11
831.97467708197166
 21
423.05808359532807
  0
LINE
  8
_0-0_
  6
CONTINUOUS
 62
    7
 10
759.09516684022276
 20
366.08847593027554
 11
816.60161370774915
 21
423.59492279780102
  0
TEXT
  8
_0-0_
 62
    7
 10
906.73245032900388
 20
575.67973412101151
 40
40
 41
1
 50
0
  1
Ａ
  0
TEXT
  8
_0-0_
 62
    7
 10
1429.6891920142089
 20
576.02721287347708
 40
40
 41
1
 50
0
  1
Ｂ
  0
TEXT
  8
_0-0_
 62
    7
 10
941.25844822473812
 20
1351.4850665766119
 40
24
 41
1
 50
0
  1
Ａ
  0
LINE
  8
_0-0_
  6
CONTINUOUS
 62
    7
 10
1408.5349878640523
 20
342.67313907309767
 11
1493.6489488947304
 21
342.67313907309767
  0
LINE
  8
_0-0_
  6
CONTINUOUS
 62
  136
 10
1279.6453775572627
 20
405.92671041056587
 11
1340.6489488947304
 21
344.92313907309767
  0
LINE
  8
_0-0_
  6
CONTINUOUS
 62
    6
 10
1275.1453775572613
 20
309.98808501708413
 11
1292.0804316132767
 21
326.92313907309949
  0
LINE
  8
_0-0_
  6
CONTINUOUS
 62
    6
 10
1275.1453775572613
 20
278.16827986368958
 11
1323.9002367666712
 21
326.92313907309949
  0
LINE
  8
_0-0_
  6
CONTINUOUS
 62
    6
 10
1276.9700419200622
 20
248.17313907309676
 11
1355.7200419200622
 21
326.92313907309676
  0
LINE
  8
_0-0_
  6
CONTINUOUS
 62
    6
 10
1308.7898470734613
 20
248.17313907309949
 11
1387.5398470734613
 21
326.92313907309949
  0
LINE
  8
_0-0_
  6
CONTINUOUS
 62
    6
 10
1340.6096522268549
 20
248.17313907309949
 11
1419.3596522268549
 21
326.92313907309949
  0
LINE
  8
_0-0_
  6
CONTINUOUS
 62
    6
 10
1372.4294573802467
 20
248.17313907309767
 11
1451.1794573802458
 21
326.92313907309676
  0
LINE
  8
_0-0_
  6
CONTINUOUS
 62
    6
 10
1404.2492625336449
 20
248.17313907309949
 11
1482.9992625336449
 21
326.92313907309949
  0
LINE
  8
_0-0_
  6
CONTINUOUS
 62
    6
 10
1436.0690676870386
 20
248.17313907309949
 11
1514.8190676870386
 21
326.92313907309949
  0
LINE
  8
_0-0_
  6
CONTINUOUS
 62
    6
 10
1467.8888728404304
 20
248.17313907309676
 11
1546.6388728404304
 21
326.92313907309767
  0
LINE
  8
_0-0_
  6
CONTINUOUS
 62
    6
 10
1484.2469650114613
 20
326.92313907309676
 11
1562.9969650114613
 21
248.17313907309676
  0
LINE
  8
_0-0_
  6
CONTINUOUS
 62
    6
 10
1452.4271598580631
 20
326.92313907309949
 11
1531.1771598580631
 21
248.17313907309949
  0
LINE
  8
_0-0_
  6
CONTINUOUS
 62
    6
 10
1420.6073547046713
 20
326.92313907309585
 11
1499.3573547046703
 21
248.17313907309585
  0
LINE
  8
_0-0_
  6
CONTINUOUS
 62
    6
 10
1388.7875495512776
 20
326.92313907309676
 11
1467.5375495512767
 21
248.17313907309949
  0
LINE
  8
_0-0_
  6
CONTINUOUS
 62
    6
 10
1356.9677443978794
 20
326.92313907309949
 11
1435.7177443978794
 21
248.17313907309949
  0
LINE
  8
_0-0_
  6
CONTINUOUS
 62
    6
 10
1325.1479392444876
 20
326.92313907309585
 11
1403.8979392444876
 21
248.17313907309585
  0
LINE
  8
_0-0_
  6
CONTINUOUS
 62
    6
 10
1293.3281340910939
 20
326.92313907309676
 11
1372.0781340910939
 21
248.17313907309676
  0
LINE
  8
_0-0_
  6
CONTINUOUS
 62
    6
 10
1275.1453775572641
 20
313.28609045353119
 11
1340.2583289376958
 21
248.17313907309949
  0
LINE
  8
_0-0_
  6
CONTINUOUS
 62
    6
 10
1275.1453775572613
 20
281.46628530013845
 11
1308.4385237843021
 21
248.17313907309676
  0
LINE
  8
_0-0_
  6
CONTINUOUS
 62
    6
 10
1275.1453775572627
 20
249.64648014674026
 11
1276.6187186309053
 21
248.17313907309767
  0
LINE
  8
_0-0_
  6
CONTINUOUS
 62
    6
 10
1275.1453775572627
 20
326.92313907309767
 11
1275.1453775572627
 21
248.17313907309767
  0
LINE
  8
_0-0_
  6
CONTINUOUS
 62
    1
 10
1221.1453775572627
 20
438.74472989522678
 11
1222.6882752462056
 21
440.2876275841702
  0
LINE
  8
_0-0_
  6
CONTINUOUS
 62
    1
 10
1221.1453775572627
 20
438.74472989522678
 11
1222.6882752462056
 21
437.20183220628246
  0
LINE
  8
_0-0_
  6
DASHED1
 62
    1
 10
1222.6882752462056
 20
440.2876275841702
 11
1223.9578775572627
 21
441.55722989522678
  0
LINE
  8
_0-0_
  6
DASHED1
 62
    1
 10
1222.6882752462056
 20
437.20183220628246
 11
1223.9578775572627
 21
435.93222989522678
  0
LINE
  8
_0-0_
  6
CONTINUOUS
 62
    1
 10
1221.4948296695998
 20
432.07678637391859
 11
1221.2302419969533
 21
437.12541992156935
  0
LINE
  8
_0-0_
  6
CONTINUOUS
 62
    1
 10
1221.2302419969533
 20
440.36403986888422
 11
1221.4948296695998
 21
445.41267341653497
  0
LINE
  8
_0-0_
  6
CONTINUOUS
 62
    4
 10
1394.9712110780411
 20
365.17313907309767
 11
1411.9099878640523
 21
365.17313907309767
  0
LINE
  8
_0-0_
  6
CONTINUOUS
 62
    7
 10
1493.6489488947304
 20
342.67313907309767
 11
1493.6489488947304
 21
340.42313907309767
  0
LINE
  8
_0-0_
  6
CONTINUOUS
 62
    7
 10
1340.6489488947304
 20
344.92313907309767
 11
1340.6489488947304
 21
347.17313907309767
  0
LINE
  8
_0-0_
  6
CONTINUOUS
 62
    7
 10
1277.3953775572627
 20
473.81274937988769
 11
1281.8953775572627
 21
473.81274937988769
  0
LINE
  8
_0-0_
  6
CONTINUOUS
 62
    7
 10
1279.6453775572627
 20
405.92671041056587
 11
1281.8953775572627
 21
405.92671041056587
  0
LINE
  8
_0-0_
  6
CONTINUOUS
 62
    1
 10
1241.3953775572627
 20
433.11972989522678
 11
1221.4948296695998
 21
432.07678637391859
  0
LINE
  8
_0-0_
  6
CONTINUOUS
 62
    1
 10
1279.6453775572627
 20
433.11972989522678
 11
1279.6453775572627
 21
421.86972989522678
  0
LINE
  8
_0-0_
  6
CONTINUOUS
 62
    1
 10
1279.6453775572627
 20
444.36972989522678
 11
1279.6453775572627
 21
455.61972989522678
  0
LINE
  8
_0-0_
  6
CONTINUOUS
 62
    1
 10
1284.1453775572627
 20
442.85059460317757
 11
1284.1453775572627
 21
434.63886518727509
  0
LINE
  8
_0-0_
  6
CONTINUOUS
 62
    1
 10
1284.1453775572627
 20
442.85059460317825
 11
1284.1453775572627
 21
442.85059460317825
  0
LINE
  8
_0-0_
  6
CONTINUOUS
 62
    1
 10
1284.1453775572627
 20
442.85059460317825
 11
1282.1697289623421
 21
450.44610192754817
  0
LINE
  8
_0-0_
  6
CONTINUOUS
 62
    1
 10
1282.1697289623421
 20
450.44610192754817
 11
1279.6453775572627
 21
455.61972989522678
  0
LINE
  8
_0-0_
  6
CONTINUOUS
 62
    1
 10
1279.6453775572627
 20
421.86972989522678
 11
1279.6453775572627
 21
421.86972989522678
  0
LINE
  8
_0-0_
  6
CONTINUOUS
 62
    1
 10
1279.6453775572627
 20
421.86972989522678
 11
1282.9427925343762
 21
429.23699193860654
  0
LINE
  8
_0-0_
  6
CONTINUOUS
 62
    1
 10
1282.9427925343762
 20
429.23699193860654
 11
1284.1453775572627
 21
434.63886518727531
  0
LINE
  8
_0-0_
  6
CONTINUOUS
 62
    1
 10
1284.524116951309
 20
435.41762692575975
 11
1284.524116951309
 21
435.41762692575975
  0
LINE
  8
_0-0_
  6
CONTINUOUS
 62
    1
 10
1284.524116951309
 20
435.41762692575975
 11
1284.1453775572627
 21
435.93222989522678
  0
LINE
  8
_0-0_
  6
CONTINUOUS
 62
    1
 10
1284.1453775572627
 20
441.55722989522678
 11
1284.1453775572627
 21
441.55722989522678
  0
LINE
  8
_0-0_
  6
CONTINUOUS
 62
    1
 10
1284.1453775572627
 20
441.55722989522678
 11
1284.524116951309
 21
442.07183286469382
  0
LINE
  8
_0-0_
  6
CONTINUOUS
 62
    1
 10
1284.524116951309
 20
435.41762692575958
 11
1284.524116951309
 21
435.41762692575958
  0
LINE
  8
_0-0_
  6
CONTINUOUS
 62
    1
 10
1284.524116951309
 20
435.41762692575958
 11
1284.5905812198355
 21
435.99431234052003
  0
LINE
  8
_0-0_
  6
CONTINUOUS
 62
    1
 10
1284.5905812198355
 20
435.99431234052003
 11
1284.6435182003584
 21
436.65456780090182
  0
LINE
  8
_0-0_
  6
CONTINUOUS
 62
    1
 10
1284.6435182003584
 20
436.65456780090182
 11
1284.6813194295123
 21
437.37833177884659
  0
LINE
  8
_0-0_
  6
CONTINUOUS
 62
    1
 10
1284.6813194295123
 20
437.37833177884659
 11
1284.7028363360778
 21
438.14361307212681
  0
LINE
  8
_0-0_
  6
CONTINUOUS
 62
    1
 10
1284.7028363360778
 20
438.14361307212681
 11
1284.7074151397364
 21
438.92715899589712
  0
LINE
  8
_0-0_
  6
CONTINUOUS
 62
    1
 10
1284.7074151397364
 20
438.92715899589712
 11
1284.6949167158564
 21
439.70516190375713
  0
LINE
  8
_0-0_
  6
CONTINUOUS
 62
    1
 10
1284.6949167158564
 20
439.70516190375713
 11
1284.665720822723
 21
440.45398257104
  0
LINE
  8
_0-0_
  6
CONTINUOUS
 62
    1
 10
1284.665720822723
 20
440.45398257104
 11
1284.6207145627748
 21
441.15086846069187
  0
LINE
  8
_0-0_
  6
CONTINUOUS
 62
    1
 10
1284.6207145627748
 20
441.15086846069187
 11
1284.5612654284462
 21
441.77464504759695
  0
LINE
  8
_0-0_
  6
CONTINUOUS
 62
    1
 10
1284.5612654284462
 20
441.77464504759695
 11
1284.524116951309
 21
442.07183286469382
  0
LINE
  8
_0-0_
  6
DASHED1
 62
    1
 10
1284.1453775572627
 20
441.55722989522678
 11
1223.9578775572627
 21
441.55722989522678
  0
LINE
  8
_0-0_
  6
DASHED1
 62
    1
 10
1284.1453775572627
 20
435.93222989522678
 11
1223.9578775572627
 21
435.93222989522678
  0
LINE
  8
_0-0_
  6
CONTINUOUS
 62
    1
 10
1241.3953775572627
 20
444.36972989522678
 11
1279.6453775572627
 21
444.36972989522678
  0
LINE
  8
_0-0_
  6
CONTINUOUS
 62
    1
 10
1241.3953775572627
 20
444.36972989522678
 11
1221.4948296695998
 21
445.41267341653497
  0
LINE
  8
_0-0_
  6
CONTINUOUS
 62
    1
 10
1241.3953775572627
 20
439.30722989522678
 11
1221.2302419969533
 21
440.36403986888422
  0
LINE
  8
_0-0_
  6
CONTINUOUS
 62
    1
 10
1241.3953775572627
 20
433.11972989522678
 11
1279.6453775572627
 21
433.11972989522678
  0
LINE
  8
_0-0_
  6
CONTINUOUS
 62
    1
 10
1241.3953775572627
 20
438.18222989522678
 11
1221.2302419969533
 21
437.12541992156935
  0
LINE
  8
_0-0_
  6
CONTINUOUS
 62
    1
 10
1241.3953775572627
 20
438.18222989522678
 11
1241.3953775572627
 21
439.30722989522678
  0
LINE
  8
_0-0_
  6
CONTINUOUS
 62
    7
 10
1281.8953775572627
 20
405.92671041056587
 11
1281.8953775572627
 21
421.30786332951743
  0
LINE
  8
_0-0_
  6
CONTINUOUS
 62
    7
 10
1281.8953775572627
 20
456.18159646093522
 11
1281.8953775572627
 21
473.81274937988769
  0
LINE
  8
_0-0_
  6
CONTINUOUS
 62
    7
 10
1281.8953775572627
 20
421.30786332951766
 11
1281.8953775572627
 21
421.30786332951766
  0
LINE
  8
_0-0_
  6
CONTINUOUS
 62
    7
 10
1281.8953775572627
 20
421.30786332951766
 11
1285.2352563580644
 21
429.06583237707048
  0
LINE
  8
_0-0_
  6
CONTINUOUS
 62
    7
 10
1285.2352563580644
 20
429.06583237707048
 11
1286.6277966225473
 21
437.11788982795406
  0
LINE
  8
_0-0_
  6
CONTINUOUS
 62
    7
 10
1286.6277966225473
 20
437.11788982795406
 11
1286.0306867194345
 21
445.21937799106092
  0
LINE
  8
_0-0_
  6
CONTINUOUS
 62
    7
 10
1286.0306867194345
 20
445.21937799106092
 11
1283.4620695309798
 21
453.12413724810585
  0
LINE
  8
_0-0_
  6
CONTINUOUS
 62
    7
 10
1283.4620695309798
 20
453.12413724810585
 11
1281.8953775572627
 21
456.18159646093591
  0
LINE
  8
_0-0_
  6
CENTER2
 62
    1
 10
1296.498390028531
 20
438.74472989522678
 11
1211.5000225505323
 21
438.74472989522678
  0
LINE
  8
_0-0_
  6
CONTINUOUS
 62
    4
 10
1293.1453775572627
 20
411.51859350260315
 11
1293.1453775572627
 21
418.68684491788213
  0
LINE
  8
_0-0_
  6
CONTINUOUS
 62
    4
 10
1293.1453775572627
 20
418.68684491788264
 11
1293.1453775572627
 21
418.68684491788264
  0
LINE
  8
_0-0_
  6
CONTINUOUS
 62
    4
 10
1293.1453775572627
 20
418.68684491788264
 11
1296.6785699097027
 21
428.40299434283963
  0
LINE
  8
_0-0_
  6
CONTINUOUS
 62
    4
 10
1296.6785699097027
 20
428.40299434283963
 11
1297.9167244341531
 21
438.43337216938522
  0
LINE
  8
_0-0_
  6
CONTINUOUS
 62
    4
 10
1297.9167244341531
 20
438.43337216938522
 11
1296.8222204319252
 21
448.47321044287594
  0
LINE
  8
_0-0_
  6
CONTINUOUS
 62
    4
 10
1296.8222204319252
 20
448.47321044287594
 11
1293.428313853281
 21
458.21745375777499
  0
LINE
  8
_0-0_
  6
CONTINUOUS
 62
    4
 10
1293.428313853281
 20
458.21745375777499
 11
1293.1453775572627
 21
458.80261487257093
  0
LINE
  8
_0-0_
  6
CONTINUOUS
 62
    4
 10
1293.1453775572627
 20
458.80261487257053
 11
1293.1453775572627
 21
477.18774937988769
  0
LINE
  8
_0-0_
  6
CONTINUOUS
 62
    4
 10
1293.1453775572627
 20
477.18774937988769
 11
1288.6453775572627
 21
481.68774937988769
  0
LINE
  8
_0-0_
  6
CONTINUOUS
 62
    7
 10
1408.5349878640523
 20
342.67313907309767
 11
1408.5349878640523
 21
347.17313907309767
  0
LINE
  8
_0-0_
  6
CONTINUOUS
 62
    7
 10
1340.6489488947304
 20
347.17313907309767
 11
1356.0301018136811
 21
347.17313907309767
  0
LINE
  8
_0-0_
  6
CONTINUOUS
 62
    7
 10
1390.9038349451016
 20
347.17313907309767
 11
1408.5349878640523
 21
347.17313907309767
  0
LINE
  8
_0-0_
  6
CONTINUOUS
 62
    7
 10
1390.9038349450996
 20
347.17313907309767
 11
1390.9038349450996
 21
347.17313907309767
  0
LINE
  8
_0-0_
  6
CONTINUOUS
 62
    7
 10
1390.9038349450996
 20
347.17313907309767
 11
1383.1458658975466
 21
350.51301787389946
  0
LINE
  8
_0-0_
  6
CONTINUOUS
 62
    7
 10
1383.1458658975466
 20
350.51301787389946
 11
1375.0938084466632
 21
351.90555813838239
  0
LINE
  8
_0-0_
  6
CONTINUOUS
 62
    7
 10
1375.0938084466632
 20
351.90555813838239
 11
1366.9923202835564
 21
351.30844823526945
  0
LINE
  8
_0-0_
  6
CONTINUOUS
 62
    7
 10
1366.9923202835564
 20
351.30844823526945
 11
1359.0875610265114
 21
348.73983104681469
  0
LINE
  8
_0-0_
  6
CONTINUOUS
 62
    7
 10
1359.0875610265114
 20
348.73983104681469
 11
1356.0301018136813
 21
347.17313907309767
  0
LINE
  8
_0-0_
  6
CONTINUOUS
 62
    4
 10
1293.1453775572627
 20
411.51859350260315
 11
1339.4908319867686
 21
365.17313907309767
  0
LINE
  8
_0-0_
  6
CONTINUOUS
 62
    4
 10
1339.4908319867686
 20
365.17313907309767
 11
1351.9627256807421
 21
365.17313907309767
  0
LINE
  8
_0-0_
  6
CONTINUOUS
 62
    4
 10
1394.9712110780404
 20
365.17313907309767
 11
1394.9712110780404
 21
365.17313907309767
  0
LINE
  8
_0-0_
  6
CONTINUOUS
 62
    4
 10
1394.9712110780404
 20
365.17313907309767
 11
1384.0775223935511
 21
368.80916036648819
  0
LINE
  8
_0-0_
  6
CONTINUOUS
 62
    4
 10
1384.0775223935511
 20
368.80916036648819
 11
1372.8614373945409
 21
369.94192409221728
  0
LINE
  8
_0-0_
  6
CONTINUOUS
 62
    4
 10
1372.8614373945409
 20
369.94192409221728
 11
1361.6637511480919
 21
368.5370117976849
  0
LINE
  8
_0-0_
  6
CONTINUOUS
 62
    4
 10
1361.6637511480919
 20
368.5370117976849
 11
1351.9627256807405
 21
365.17313907309767
  0
LINE
  8
_0-0_
  6
CONTINUOUS
 62
    4
 10
1411.9099878640523
 20
365.17313907309767
 11
1416.4099878640523
 21
360.67313907309767
  0
LINE
  8
_0-0_
  6
CONTINUOUS
 62
  136
 10
1275.1453775572627
 20
404.06274937988769
 11
1338.7849878640523
 21
340.42313907309767
  0
LINE
  8
_0-0_
  6
CONTINUOUS
 62
  136
 10
1338.7849878640523
 20
340.42313907309767
 11
1406.2849878640523
 21
340.42313907309767
  0
LINE
  8
_0-0_
  6
CONTINUOUS
 62
  136
 10
1406.2849878640523
 20
340.42313907309767
 11
1406.2849878640523
 21
344.92313907309767
  0
LINE
  8
_0-0_
  6
CONTINUOUS
 62
  136
 10
1275.1453775572627
 20
471.56274937988769
 11
1275.1453775572627
 21
404.06274937988769
  0
LINE
  8
_0-0_
  6
CONTINUOUS
 62
  136
 10
1275.1453775572627
 20
471.56274937988769
 11
1279.6453775572627
 21
471.56274937988769
  0
LINE
  8
_0-0_
  6
CONTINUOUS
 62
  136
 10
1279.6453775572627
 20
471.56274937988769
 11
1279.6453775572627
 21
405.92671041056587
  0
LINE
  8
_0-0_
  6
CONTINUOUS
 62
  136
 10
1340.6489488947304
 20
344.92313907309767
 11
1406.2849878640523
 21
344.92313907309767
  0
LINE
  8
_0-0_
  6
DASHED1
 62
    1
 10
1370.6544683793904
 20
349.42313907309767
 11
1370.6544683793904
 21
190.23563907309767
  0
LINE
  8
_0-0_
  6
CONTINUOUS
 62
    1
 10
1369.3611036714387
 20
349.42313907309767
 11
1377.5728330873421
 21
349.42313907309767
  0
LINE
  8
_0-0_
  6
CONTINUOUS
 62
    1
 10
1369.361103671439
 20
349.42313907309767
 11
1369.361103671439
 21
349.42313907309767
  0
LINE
  8
_0-0_
  6
CONTINUOUS
 62
    1
 10
1369.361103671439
 20
349.42313907309767
 11
1361.765596347069
 21
347.44749047817714
  0
LINE
  8
_0-0_
  6
CONTINUOUS
 62
    1
 10
1361.765596347069
 20
347.44749047817714
 11
1356.5919683793904
 21
344.92313907309767
  0
LINE
  8
_0-0_
  6
CONTINUOUS
 62
    1
 10
1376.7940713488574
 20
349.80187846714392
 11
1376.7940713488574
 21
349.80187846714392
  0
LINE
  8
_0-0_
  6
CONTINUOUS
 62
    1
 10
1376.7940713488574
 20
349.80187846714392
 11
1376.2794683793904
 21
349.42313907309767
  0
LINE
  8
_0-0_
  6
CONTINUOUS
 62
    1
 10
1370.6544683793904
 20
349.42313907309767
 11
1370.6544683793904
 21
349.42313907309767
  0
LINE
  8
_0-0_
  6
CONTINUOUS
 62
    1
 10
1370.6544683793904
 20
349.42313907309767
 11
1370.1398654099235
 21
349.80187846714392
  0
LINE
  8
_0-0_
  6
CONTINUOUS
 62
    1
 10
1376.7940713488576
 20
349.80187846714392
 11
1376.7940713488576
 21
349.80187846714392
  0
LINE
  8
_0-0_
  6
CONTINUOUS
 62
    1
 10
1376.7940713488576
 20
349.80187846714392
 11
1376.2173859340971
 21
349.86834273567035
  0
LINE
  8
_0-0_
  6
CONTINUOUS
 62
    1
 10
1376.2173859340971
 20
349.86834273567035
 11
1375.5571304737155
 21
349.92127971619345
  0
LINE
  8
_0-0_
  6
CONTINUOUS
 62
    1
 10
1375.5571304737155
 20
349.92127971619345
 11
1374.8333664957706
 21
349.95908094534735
  0
LINE
  8
_0-0_
  6
CONTINUOUS
 62
    1
 10
1374.8333664957706
 20
349.95908094534735
 11
1374.0680852024905
 21
349.98059785191265
  0
LINE
  8
_0-0_
  6
CONTINUOUS
 62
    1
 10
1374.0680852024905
 20
349.98059785191265
 11
1373.2845392787201
 21
349.98517665557142
  0
LINE
  8
_0-0_
  6
CONTINUOUS
 62
    1
 10
1373.2845392787201
 20
349.98517665557142
 11
1372.50653637086
 21
349.97267823169148
  0
LINE
  8
_0-0_
  6
CONTINUOUS
 62
    1
 10
1372.50653637086
 20
349.97267823169148
 11
1371.7577157035771
 21
349.94348233855789
  0
LINE
  8
_0-0_
  6
CONTINUOUS
 62
    1
 10
1371.7577157035771
 20
349.94348233855789
 11
1371.0608298139252
 21
349.89847607860963
  0
LINE
  8
_0-0_
  6
CONTINUOUS
 62
    1
 10
1371.0608298139252
 20
349.89847607860963
 11
1370.4370532270202
 21
349.8390269442811
  0
LINE
  8
_0-0_
  6
CONTINUOUS
 62
    1
 10
1370.4370532270202
 20
349.8390269442811
 11
1370.1398654099235
 21
349.80187846714398
  0
LINE
  8
_0-0_
  6
CONTINUOUS
 62
    1
 10
1367.8419683793904
 20
344.86207358215165
 11
1367.8419683793904
 21
344.92313907309767
  0
LINE
  8
_0-0_
  6
CONTINUOUS
 62
    1
 10
1390.3419683793904
 20
344.92313907309767
 11
1390.3419683793904
 21
344.92313907309767
  0
LINE
  8
_0-0_
  6
CONTINUOUS
 62
    1
 10
1390.3419683793904
 20
344.92313907309767
 11
1390.0458193731208
 21
345.09569679863495
  0
LINE
  8
_0-0_
  6
CONTINUOUS
 62
    1
 10
1390.0458193731208
 20
345.09569679863495
 11
1390.0458193731208
 21
345.09569679863495
  0
LINE
  8
_0-0_
  6
CONTINUOUS
 62
    1
 10
1390.0458193731208
 20
345.09569679863495
 11
1382.662081464382
 21
348.31702490008144
  0
LINE
  8
_0-0_
  6
CONTINUOUS
 62
    1
 10
1382.662081464382
 20
348.31702490008144
 11
1377.5728330873419
 21
349.42313907309767
  0
LINE
  8
_0-0_
  6
CONTINUOUS
 62
    1
 10
1390.3419683793904
 20
344.92313907309767
 11
1356.5919683793904
 21
344.92313907309767
  0
LINE
  8
_0-0_
  6
CONTINUOUS
 62
    1
 10
1379.0919683793904
 20
207.67313907309767
 11
1380.1349119006995
 21
187.7725911854352
  0
LINE
  8
_0-0_
  6
CONTINUOUS
 62
    1
 10
1373.4669683793904
 20
187.42313907309767
 11
1371.9240706904479
 21
188.96603676204109
  0
LINE
  8
_0-0_
  6
CONTINUOUS
 62
    1
 10
1373.4669683793904
 20
187.42313907309767
 11
1375.0098660683338
 21
188.96603676204109
  0
LINE
  8
_0-0_
  6
DASHED1
 62
    1
 10
1371.9240706904479
 20
188.96603676204109
 11
1370.6544683793904
 21
190.23563907309767
  0
LINE
  8
_0-0_
  6
CONTINUOUS
 62
    1
 10
1367.8419683793904
 20
207.67313907309767
 11
1366.7990248580832
 21
187.7725911854352
  0
LINE
  8
_0-0_
  6
CONTINUOUS
 62
    1
 10
1372.9044683793904
 20
207.67313907309767
 11
1371.847658405733
 21
187.50800351278781
  0
LINE
  8
_0-0_
  6
CONTINUOUS
 62
    1
 10
1374.0294683793904
 20
207.67313907309767
 11
1375.0862783530479
 21
187.50800351278781
  0
LINE
  8
_0-0_
  6
DASHED1
 62
    1
 10
1375.0098660683338
 20
188.96603676204109
 11
1376.2794683793904
 21
190.23563907309767
  0
LINE
  8
_0-0_
  6
CONTINUOUS
 62
    1
 10
1380.1349119006995
 20
187.7725911854352
 11
1375.0862783530479
 21
187.50800351278781
  0
LINE
  8
_0-0_
  6
CONTINUOUS
 62
    1
 10
1371.847658405733
 20
187.50800351278781
 11
1366.7990248580832
 21
187.7725911854352
  0
LINE
  8
_0-0_
  6
CONTINUOUS
 62
    1
 10
1374.0294683793904
 20
207.67313907309767
 11
1372.9044683793904
 21
207.67313907309767
  0
LINE
  8
_0-0_
  6
DASHED1
 62
    1
 10
1376.2794683793904
 20
349.42313907309767
 11
1376.2794683793904
 21
190.23563907309767
  0
LINE
  8
_0-0_
  6
CENTER2
 62
    1
 10
1373.4669683793904
 20
368.67209249896337
 11
1373.4669683793904
 21
177.22984429804751
  0
LINE
  8
_0-0_
  6
CONTINUOUS
 62
    1
 10
1379.0919683793904
 20
207.67313907309767
 11
1379.0919683793904
 21
344.92313907309767
  0
LINE
  8
_0-0_
  6
CONTINUOUS
 62
    1
 10
1367.8419683793904
 20
207.67313907309767
 11
1367.8419683793904
 21
344.92313907309767
  0
LINE
  8
_0-0_
  6
CONTINUOUS
 62
    1
 10
1384.7169683793904
 20
248.17313907309767
 11
1362.2169683793904
 21
248.17313907309767
  0
LINE
  8
_0-0_
  6
CONTINUOUS
 62
    1
 10
1362.2169683793904
 20
248.17313907309767
 11
1362.2169683793904
 21
326.92313907309767
  0
LINE
  8
_0-0_
  6
CONTINUOUS
 62
    1
 10
1362.2169683793904
 20
326.92313907309767
 11
1384.7169683793904
 21
326.92313907309767
  0
LINE
  8
_0-0_
  6
CONTINUOUS
 62
    1
 10
1384.7169683793904
 20
326.92313907309767
 11
1384.7169683793904
 21
248.17313907309767
  0
LINE
  8
_0-0_
  6
CONTINUOUS
 62
    1
 10
1364.4669683793904
 20
248.17313907309767
 11
1364.4669683793904
 21
326.92313907309767
  0
LINE
  8
_0-0_
  6
CONTINUOUS
 62
    1
 10
1382.4669683793904
 20
326.92313907309767
 11
1382.4669683793904
 21
248.17313907309767
  0
LINE
  8
_0-0_
  6
CONTINUOUS
 62
    7
 10
1277.3953775572627
 20
473.81274937988769
 11
1277.3953775572627
 21
542.00111678473809
  0
LINE
  8
_0-0_
  6
CONTINUOUS
 62
    7
 10
1275.1453775572627
 20
248.17313907309767
 11
1275.1453775572627
 21
542.00111678473809
  0
LINE
  8
_0-0_
  6
CONTINUOUS
 62
    4
 10
1416.4099878640523
 20
360.67313907309767
 11
1562.9969650114604
 21
360.67313907309767
  0
LINE
  8
_0-0_
  6
CONTINUOUS
 62
    3
 10
1275.1453775572627
 20
340.42313907309767
 11
1562.9969650114604
 21
340.42313907309767
  0
LINE
  8
_0-0_
  6
CONTINUOUS
 62
    6
 10
1562.9969650114604
 20
326.92313907309767
 11
1275.1453775572627
 21
326.92313907309767
  0
LINE
  8
_0-0_
  6
CONTINUOUS
 62
    6
 10
1275.1453775572627
 20
248.17313907309767
 11
1562.9969650114613
 21
248.17313907309767
  0
LINE
  8
_0-0_
  6
CONTINUOUS
 62
    6
 10
1499.7086779938277
 20
248.17313907309767
 11
1562.9969650114604
 21
311.46142609073127
  0
LINE
  8
_0-0_
  6
CONTINUOUS
 62
    6
 10
1547.8865753182467
 20
326.92313907309949
 11
1562.9969650114604
 21
311.81274937988587
  0
LINE
  8
_0-0_
  6
CONTINUOUS
 62
    6
 10
1531.5284831472222
 20
248.17313907309949
 11
1562.9969650114604
 21
279.64162093733762
  0
LINE
  8
_0-0_
  6
CONTINUOUS
 62
    6
 10
1516.0667701648549
 20
326.92313907309585
 11
1562.9969650114604
 21
279.9929442264895
  0
LINE
  8
_0-0_
  6
CONTINUOUS
 62
    7
 10
1275.1453775572627
 20
248.17313907309767
 11
1562.9969650114613
 21
248.17313907309767
  0
LINE
  8
_0-0_
  6
CONTINUOUS
 62
    7
 10
1387.2206952549777
 20
177.22984429804751
 11
1458.1639900300274
 21
248.17313907309767
  0
LINE
  8
_0-0_
  6
CONTINUOUS
 62
    7
 10
1403.130597831675
 20
177.22984429804751
 11
1474.0738926067256
 21
248.17313907309767
  0
LINE
  8
_0-0_
  6
CONTINUOUS
 62
    7
 10
1419.0405004083723
 20
177.22984429804751
 11
1489.9837951834229
 21
248.17313907309767
  0
LINE
  8
_0-0_
  6
CONTINUOUS
 62
    7
 10
1211.5000225505323
 20
526.53595662461271
 11
1226.9651827106577
 21
542.00111678473809
  0
LINE
  8
_0-0_
  6
CONTINUOUS
 62
    7
 10
1211.5000225505323
 20
510.62605404791543
 11
1242.875085287355
 21
542.00111678473809
  0
LINE
  8
_0-0_
  6
CONTINUOUS
 62
    7
 10
1211.5000225505323
 20
494.71615147121815
 11
1258.7849878640523
 21
542.00111678473809
  0
LINE
  8
_0-0_
  6
CONTINUOUS
 62
    7
 10
1373.2974197278559
 20
347.17786318713411
 11
1444.1202226144992
 21
469.84655612123629
  0
POINT
  8
_0-0_
 62
    7
 10
1373.2974197278559
 20
347.17786318713411
  0
TEXT
  8
_0-0_
 62
    7
 10
1446.2907337165111
 20
462.40225751577532
 40
21.617968000000001
 41
1
 50
0
  1
ｱﾙﾐｻｽｱﾝｶｰ
  0
LINE
  8
_0-0_
  6
CONTINUOUS
 62
    7
 10
1288.6453775572627
 20
481.68774937988769
 11
1316.8051030401359
 21
530.46182464341587
  0
POINT
  8
_0-0_
 62
    7
 10
1288.6453775572627
 20
481.68774937988769
  0
LINE
  8
_0-0_
  6
CONTINUOUS
 62
    7
 10
1293.1453775572627
 20
458.80261487257053
 11
1316.0410503009095
 21
498.45908333803732
  0
POINT
  8
_0-0_
 62
    7
 10
1293.1453775572627
 20
458.80261487257053
  0
TEXT
  8
_0-0_
 62
    7
 10
1318.8025485542016
 20
488.17643236343906
 40
21.617968000000001
 41
1
 50
0
  1
ｳﾚﾀﾝ防水
  0
TEXT
  8
_0-0_
 62
    7
 10
1317.0420294544506
 20
522.50655480857972
 40
21.617968000000001
 41
1
 50
0
  1
ﾄｯﾌﾟｺｰﾄ
  0
LINE
  8
_0-0_
  6
CONTINUOUS
 62
    7
 10
1282.187631505486
 20
438.7773272568877
 11
1444.1202226144992
 21
469.84655612123629
  0
POINT
  8
_0-0_
 62
    7
 10
1282.187631505486
 20
438.7773272568877
  0
LINE
  8
_0-0_
  6
CONTINUOUS
 62
    7
 10
1547.8865753182467
 20
326.92313907309949
 11
1569.95152498127
 21
365.14075295590578
  0
TEXT
  8
_0-0_
 62
    7
 10
1572.6240925447114
 20
354.88835809991838
 40
21.617968000000001
 41
1
 50
0
  1
ﾌﾟﾗｲﾏｰ
  0
LINE
  8
_0-0_
  6
CONTINUOUS
 62
    7
 10
1547.2627240793404
 20
263.90738000521765
 11
1581.8521713560708
 21
323.81806009423985
  0
POINT
  8
_0-0_
 62
    7
 10
1547.2627240793404
 20
263.90738000521765
  0
TEXT
  8
_0-0_
 62
    7
 10
1583.1530576163527
 20
311.9301806076212
 40
21.617968000000001
 41
1
 50
0
  1
断熱材
  0
POINT
  8
_0-0_
 62
    7
 10
1547.8865753182467
 20
326.92313907309949
  0
LINE
  8
_0-0_
  6
CONTINUOUS
 62
    7
 10
1534.3865753182486
 20
340.42313907309767
 11
1573.7552224997517
 21
408.61163621671426
  0
POINT
  8
_0-0_
 62
    7
 10
1534.3865753182486
 20
340.42313907309767
  0
TEXT
  8
_0-0_
 62
    7
 10
1574.9909860092239
 20
398.43937668287367
 40
21.617968000000001
 41
1
 50
0
  1
ﾗﾝｽﾛｯｸｼｰﾄ
  0
POINT
  8
_0-0_
 62
    7
 10
1453.3078333558765
 20
341.45974506566949
  0
LINE
  8
_0-0_
  6
CONTINUOUS
 62
    7
 10
1453.3078333558765
 20
341.45974506566949
 11
1482.2214787670857
 21
391.5396479499143
  0
TEXT
  8
_0-0_
 62
    7
 10
1484.3601287593415
 20
382.15687831836135
 40
21.617968000000001
 41
1
 50
0
  1
FJﾃｰﾌﾟ
  0
TEXT
  8
_0-0_
 62
    7
 10
1443.5354182864214
 20
411.95891696359308
 40
21.617968000000001
 41
1
 50
0
  1
ﾗﾝｽﾛｯｸｷｬﾝﾄ
  0
LINE
  8
_0-0_
  6
CONTINUOUS
 62
    7
 10
1396.1787541378342
 20
342.96515626435871
 11
1441.7015099352907
 21
421.81288220610372
  0
POINT
  8
_0-0_
 62
    7
 10
1396.1787541378342
 20
342.96515626435871
  0
LINE
  8
_0-0_
  6
CONTINUOUS
 62
    7
 10
1216.1733265094576
 20
1060.4922480620155
 11
1275.9312715000365
 21
1163.9960449416042
  0
POINT
  8
_0-0_
 62
    7
 10
1216.1733265094576
 20
1060.4922480620155
  0
LINE
  8
_0-0_
  6
CONTINUOUS
 62
    7
 10
1023.9254991561126
 20
1052.9922480620155
 11
1023.9254991561126
 21
1257.3279057056282
  0
LINE
  8
_0-0_
  6
CONTINUOUS
 62
    7
 10
1083.2097704035746
 20
1094.9922480620155
 11
1121.0381975283203
 21
1094.9922480620155
  0
LINE
  8
_0-0_
  6
CONTINUOUS
 62
  136
 10
1025.9254991561124
 20
1123.1049464342234
 11
1053.0381975283203
 21
1095.9922480620155
  0
LINE
  8
_0-0_
  6
CONTINUOUS
 62
    6
 10
1023.9254991561121
 20
1080.4655573704542
 11
1031.4521898476742
 21
1087.9922480620164
  0
LINE
  8
_0-0_
  6
CONTINUOUS
 62
    6
 10
1023.9254991561121
 20
1066.3234217467227
 11
1045.5943254714052
 21
1087.9922480620164
  0
LINE
  8
_0-0_
  6
CONTINUOUS
 62
    6
 10
1024.7364610951345
 20
1052.9922480620146
 11
1059.7364610951345
 21
1087.9922480620146
  0
LINE
  8
_0-0_
  6
CONTINUOUS
 62
    6
 10
1038.8785967188674
 20
1052.9922480620164
 11
1073.8785967188674
 21
1087.9922480620164
  0
LINE
  8
_0-0_
  6
CONTINUOUS
 62
    6
 10
1053.020732342598
 20
1052.9922480620164
 11
1088.020732342598
 21
1087.9922480620164
  0
LINE
  8
_0-0_
  6
CONTINUOUS
 62
    6
 10
1067.1628679663277
 20
1052.9922480620155
 11
1102.1628679663272
 21
1087.9922480620146
  0
LINE
  8
_0-0_
  6
CONTINUOUS
 62
    6
 10
1081.3050035900601
 20
1052.9922480620164
 11
1116.3050035900601
 21
1087.9922480620164
  0
LINE
  8
_0-0_
  6
CONTINUOUS
 62
    6
 10
1095.4471392137907
 20
1052.9922480620164
 11
1130.4471392137907
 21
1087.9922480620164
  0
LINE
  8
_0-0_
  6
CONTINUOUS
 62
    6
 10
1109.5892748375204
 20
1052.9922480620146
 11
1144.5892748375204
 21
1087.9922480620155
  0
LINE
  8
_0-0_
  6
CONTINUOUS
 62
    6
 10
1123.7314104612524
 20
1052.9922480620155
 11
1158.7314104612528
 21
1087.9922480620164
  0
LINE
  8
_0-0_
  6
CONTINUOUS
 62
    6
 10
1137.8735460849834
 20
1052.9922480620164
 11
1172.8735460849839
 21
1087.9922480620164
  0
LINE
  8
_0-0_
  6
CONTINUOUS
 62
    6
 10
1152.0156817087131
 20
1052.9922480620155
 11
1187.0156817087131
 21
1087.9922480620146
  0
LINE
  8
_0-0_
  6
CONTINUOUS
 62
    6
 10
1166.1578173324451
 20
1052.9922480620164
 11
1201.1578173324451
 21
1087.9922480620155
  0
LINE
  8
_0-0_
  6
CONTINUOUS
 62
    6
 10
1180.2999529561766
 20
1052.9922480620164
 11
1215.2999529561766
 21
1087.9922480620164
  0
LINE
  8
_0-0_
  6
CONTINUOUS
 62
    6
 10
1194.4420885799059
 20
1052.9922480620155
 11
1229.4420885799059
 21
1087.9922480620155
  0
LINE
  8
_0-0_
  6
CONTINUOUS
 62
    6
 10
1208.5842242036379
 20
1052.9922480620155
 11
1243.5842242036379
 21
1087.9922480620155
  0
LINE
  8
_0-0_
  6
CONTINUOUS
 62
    6
 10
1222.7263598273689
 20
1052.9922480620164
 11
1257.7263598273689
 21
1087.9922480620164
  0
LINE
  8
_0-0_
  6
CONTINUOUS
 62
    6
 10
1236.8684954510986
 20
1052.9922480620146
 11
1271.8684954510986
 21
1087.9922480620146
  0
LINE
  8
_0-0_
  6
CONTINUOUS
 62
    6
 10
1251.0106310748306
 20
1052.9922480620155
 11
1286.0106310748306
 21
1087.9922480620155
  0
LINE
  8
_0-0_
  6
CONTINUOUS
 62
    6
 10
1265.1527666985612
 20
1052.9922480620164
 11
1300.1527666985617
 21
1087.9922480620164
  0
LINE
  8
_0-0_
  6
CONTINUOUS
 62
    6
 10
1279.2949023222918
 20
1052.9922480620155
 11
1314.2949023222918
 21
1087.9922480620146
  0
LINE
  8
_0-0_
  6
CONTINUOUS
 62
    6
 10
1293.4370379460242
 20
1052.9922480620164
 11
1328.4370379460242
 21
1087.9922480620164
  0
LINE
  8
_0-0_
  6
CONTINUOUS
 62
    6
 10
1307.5791735697539
 20
1052.9922480620155
 11
1342.5791735697539
 21
1087.9922480620164
  0
LINE
  8
_0-0_
  6
CONTINUOUS
 62
    6
 10
1321.7213091934864
 20
1052.9922480620164
 11
1356.7213091934864
 21
1087.9922480620164
  0
LINE
  8
_0-0_
  6
CONTINUOUS
 62
    6
 10
1335.863444817217
 20
1052.9922480620164
 11
1370.863444817217
 21
1087.9922480620164
  0
LINE
  8
_0-0_
  6
CONTINUOUS
 62
    6
 10
1350.0055804409467
 20
1052.9922480620164
 11
1385.0055804409467
 21
1087.9922480620164
  0
LINE
  8
_0-0_
  6
CONTINUOUS
 62
    6
 10
1364.1477160646791
 20
1052.9922480620164
 11
1399.1477160646791
 21
1087.9922480620164
  0
LINE
  8
_0-0_
  6
CONTINUOUS
 62
    6
 10
1378.2898516884097
 20
1052.9922480620164
 11
1413.2898516884097
 21
1087.9922480620164
  0
LINE
  8
_0-0_
  6
CONTINUOUS
 62
    6
 10
1392.4319873121403
 20
1052.9922480620164
 11
1427.4319873121394
 21
1087.9922480620164
  0
LINE
  8
_0-0_
  6
CONTINUOUS
 62
    6
 10
1406.5741229358719
 20
1052.9922480620164
 11
1441.5741229358719
 21
1087.9922480620164
  0
LINE
  8
_0-0_
  6
CONTINUOUS
 62
    6
 10
1420.7162585596034
 20
1052.9922480620164
 11
1455.7162585596025
 21
1087.9922480620164
  0
LINE
  8
_0-0_
  6
CONTINUOUS
 62
    6
 10
1434.8583941833322
 20
1052.9922480620146
 11
1469.8583941833322
 21
1087.9922480620146
  0
LINE
  8
_0-0_
  6
CONTINUOUS
 62
    6
 10
1449.0005298070646
 20
1052.9922480620164
 11
1484.000529807065
 21
1087.9922480620164
  0
LINE
  8
_0-0_
  6
CONTINUOUS
 62
    6
 10
1463.1426654307961
 20
1052.9922480620164
 11
1498.1426654307961
 21
1087.9922480620164
  0
LINE
  8
_0-0_
  6
CONTINUOUS
 62
    6
 10
1477.2848010545254
 20
1052.9922480620146
 11
1512.2848010545254
 21
1087.9922480620146
  0
LINE
  8
_0-0_
  6
CONTINUOUS
 62
    6
 10
1491.4269366782578
 20
1052.9922480620164
 11
1523.9254991561124
 21
1085.4908105398711
  0
LINE
  8
_0-0_
  6
CONTINUOUS
 62
    6
 10
1505.5690723019889
 20
1052.9922480620164
 11
1523.9254991561124
 21
1071.3486749161395
  0
LINE
  8
_0-0_
  6
CONTINUOUS
 62
    6
 10
1519.7112079257181
 20
1052.9922480620146
 11
1523.9254991561133
 21
1057.2065392924098
  0
LINE
  8
_0-0_
  6
CONTINUOUS
 62
    6
 10
1512.8393354891109
 20
1087.9922480620164
 11
1523.9254991561129
 21
1076.906084395014
  0
LINE
  8
_0-0_
  6
CONTINUOUS
 62
    6
 10
1498.6971998653803
 20
1087.9922480620155
 11
1523.925499156112
 21
1062.7639487712834
  0
LINE
  8
_0-0_
  6
CONTINUOUS
 62
    6
 10
1484.5550642416492
 20
1087.9922480620164
 11
1519.5550642416492
 21
1052.9922480620164
  0
LINE
  8
_0-0_
  6
CONTINUOUS
 62
    6
 10
1470.4129286179177
 20
1087.9922480620164
 11
1505.4129286179182
 21
1052.9922480620164
  0
LINE
  8
_0-0_
  6
CONTINUOUS
 62
    6
 10
1456.2707929941871
 20
1087.9922480620155
 11
1491.2707929941876
 21
1052.9922480620155
  0
LINE
  8
_0-0_
  6
CONTINUOUS
 62
    6
 10
1442.1286573704556
 20
1087.9922480620164
 11
1477.1286573704551
 21
1052.9922480620164
  0
LINE
  8
_0-0_
  6
CONTINUOUS
 62
    6
 10
1427.986521746725
 20
1087.9922480620164
 11
1462.986521746725
 21
1052.9922480620164
  0
LINE
  8
_0-0_
  6
CONTINUOUS
 62
    6
 10
1413.8443861229944
 20
1087.9922480620146
 11
1448.8443861229944
 21
1052.9922480620155
  0
LINE
  8
_0-0_
  6
CONTINUOUS
 62
    6
 10
1399.7022504992628
 20
1087.9922480620164
 11
1434.7022504992619
 21
1052.9922480620164
  0
LINE
  8
_0-0_
  6
CONTINUOUS
 62
    6
 10
1385.5601148755322
 20
1087.9922480620164
 11
1420.5601148755322
 21
1052.9922480620164
  0
LINE
  8
_0-0_
  6
CONTINUOUS
 62
    6
 10
1371.4179792518016
 20
1087.9922480620155
 11
1406.4179792518016
 21
1052.9922480620155
  0
LINE
  8
_0-0_
  6
CONTINUOUS
 62
    6
 10
1357.2758436280701
 20
1087.9922480620164
 11
1392.2758436280692
 21
1052.9922480620164
  0
LINE
  8
_0-0_
  6
CONTINUOUS
 62
    6
 10
1343.1337080043395
 20
1087.9922480620155
 11
1378.1337080043395
 21
1052.9922480620164
  0
LINE
  8
_0-0_
  6
CONTINUOUS
 62
    6
 10
1328.9915723806089
 20
1087.9922480620155
 11
1363.9915723806089
 21
1052.9922480620155
  0
LINE
  8
_0-0_
  6
CONTINUOUS
 62
    6
 10
1314.8494367568774
 20
1087.9922480620164
 11
1349.8494367568774
 21
1052.9922480620164
  0
LINE
  8
_0-0_
  6
CONTINUOUS
 62
    6
 10
1300.7073011331463
 20
1087.9922480620164
 11
1335.7073011331468
 21
1052.9922480620164
  0
LINE
  8
_0-0_
  6
CONTINUOUS
 62
    6
 10
1286.5651655094157
 20
1087.9922480620155
 11
1321.5651655094161
 21
1052.9922480620155
  0
LINE
  8
_0-0_
  6
CONTINUOUS
 62
    6
 10
1272.4230298856837
 20
1087.9922480620164
 11
1307.4230298856842
 21
1052.9922480620164
  0
LINE
  8
_0-0_
  6
CONTINUOUS
 62
    6
 10
1258.2808942619531
 20
1087.9922480620164
 11
1293.2808942619536
 21
1052.9922480620164
  0
LINE
  8
_0-0_
  6
CONTINUOUS
 62
    6
 10
1244.1387586382234
 20
1087.9922480620155
 11
1279.138758638223
 21
1052.9922480620155
  0
LINE
  8
_0-0_
  6
CONTINUOUS
 62
    6
 10
1229.996623014491
 20
1087.9922480620164
 11
1264.996623014491
 21
1052.9922480620164
  0
LINE
  8
_0-0_
  6
CONTINUOUS
 62
    6
 10
1215.8544873907608
 20
1087.9922480620155
 11
1250.8544873907613
 21
1052.9922480620155
  0
LINE
  8
_0-0_
  6
CONTINUOUS
 62
    6
 10
1201.7123517670307
 20
1087.9922480620146
 11
1236.7123517670302
 21
1052.9922480620155
  0
LINE
  8
_0-0_
  6
CONTINUOUS
 62
    6
 10
1187.5702161432982
 20
1087.9922480620164
 11
1222.5702161432982
 21
1052.9922480620164
  0
LINE
  8
_0-0_
  6
CONTINUOUS
 62
    6
 10
1173.4280805195685
 20
1087.9922480620155
 11
1208.4280805195685
 21
1052.9922480620155
  0
LINE
  8
_0-0_
  6
CONTINUOUS
 62
    6
 10
1159.2859448958379
 20
1087.9922480620146
 11
1194.2859448958375
 21
1052.9922480620164
  0
LINE
  8
_0-0_
  6
CONTINUOUS
 62
    6
 10
1145.1438092721055
 20
1087.9922480620164
 11
1180.1438092721055
 21
1052.9922480620164
  0
LINE
  8
_0-0_
  6
CONTINUOUS
 62
    6
 10
1131.0016736483758
 20
1087.9922480620146
 11
1166.0016736483753
 21
1052.9922480620146
  0
LINE
  8
_0-0_
  6
CONTINUOUS
 62
    6
 10
1116.8595380246452
 20
1087.9922480620146
 11
1151.8595380246452
 21
1052.9922480620146
  0
LINE
  8
_0-0_
  6
CONTINUOUS
 62
    6
 10
1102.7174024009128
 20
1087.9922480620164
 11
1137.7174024009128
 21
1052.9922480620164
  0
LINE
  8
_0-0_
  6
CONTINUOUS
 62
    6
 10
1088.5752667771831
 20
1087.9922480620146
 11
1123.5752667771826
 21
1052.9922480620146
  0
LINE
  8
_0-0_
  6
CONTINUOUS
 62
    6
 10
1074.4331311534525
 20
1087.9922480620146
 11
1109.433131153452
 21
1052.9922480620164
  0
LINE
  8
_0-0_
  6
CONTINUOUS
 62
    6
 10
1060.29099552972
 20
1087.9922480620164
 11
1095.29099552972
 21
1052.9922480620164
  0
LINE
  8
_0-0_
  6
CONTINUOUS
 62
    6
 10
1046.1488599059903
 20
1087.9922480620146
 11
1081.1488599059903
 21
1052.9922480620146
  0
LINE
  8
_0-0_
  6
CONTINUOUS
 62
    6
 10
1032.0067242822597
 20
1087.9922480620146
 11
1067.0067242822597
 21
1052.9922480620146
  0
LINE
  8
_0-0_
  6
CONTINUOUS
 62
    6
 10
1023.925499156113
 20
1081.9313375644299
 11
1052.8645886585273
 21
1052.9922480620164
  0
LINE
  8
_0-0_
  6
CONTINUOUS
 62
    6
 10
1023.9254991561121
 20
1067.7892019407002
 11
1038.7224530347967
 21
1052.9922480620146
  0
LINE
  8
_0-0_
  6
CONTINUOUS
 62
    6
 10
1023.9254991561126
 20
1053.6470663169678
 11
1024.5803174110647
 21
1052.9922480620155
  0
LINE
  8
_0-0_
  6
CONTINUOUS
 62
    6
 10
1023.9254991561126
 20
1087.9922480620155
 11
1023.9254991561126
 21
1052.9922480620155
  0
LINE
  8
_0-0_
  6
CONTINUOUS
 62
    6
 10
1523.9254991561129
 20
1087.9922480620155
 11
1023.9254991561126
 21
1087.9922480620155
  0
LINE
  8
_0-0_
  6
CONTINUOUS
 62
    1
 10
1365.1989496475871
 20
1093.9922480620155
 11
1395.1989496475871
 21
1093.9922480620155
  0
LINE
  8
_0-0_
  6
CONTINUOUS
 62
    1
 10
1395.1989496475871
 20
1094.2422480620155
 11
1365.1989496475871
 21
1094.2422480620155
  0
LINE
  8
_0-0_
  6
CENTER2
 62
    1
 10
1380.1989496475871
 20
1100.4071673132669
 11
1380.1989496475871
 21
1018.0672547851839
  0
LINE
  8
_0-0_
  6
CONTINUOUS
 62
    1
 10
999.92549915611255
 20
1137.690732871851
 11
1000.6112314623093
 21
1138.3764651780477
  0
LINE
  8
_0-0_
  6
CONTINUOUS
 62
    1
 10
999.92549915611255
 20
1137.690732871851
 11
1000.6112314623093
 21
1137.0050005656533
  0
LINE
  8
_0-0_
  6
DASHED1
 62
    1
 10
1000.6112314623093
 20
1138.3764651780477
 11
1001.1754991561126
 21
1138.940732871851
  0
LINE
  8
_0-0_
  6
DASHED1
 62
    1
 10
1000.6112314623093
 20
1137.0050005656533
 11
1001.1754991561126
 21
1136.440732871851
  0
LINE
  8
_0-0_
  6
CONTINUOUS
 62
    1
 10
1000.08081120604
 20
1134.7272024179358
 11
999.96321668486382
 21
1136.9710395502254
  0
LINE
  8
_0-0_
  6
CONTINUOUS
 62
    1
 10
999.96321668486382
 20
1138.4104261934765
 11
1000.08081120604
 21
1140.6542633257652
  0
LINE
  8
_0-0_
  6
CONTINUOUS
 62
    4
 10
1077.1814251653473
 20
1104.9922480620155
 11
1084.7097704035746
 21
1104.9922480620155
  0
LINE
  8
_0-0_
  6
CONTINUOUS
 62
    7
 10
1121.0381975283203
 20
1094.9922480620155
 11
1121.0381975283203
 21
1093.9922480620155
  0
LINE
  8
_0-0_
  6
CONTINUOUS
 62
    7
 10
1053.0381975283203
 20
1095.9922480620155
 11
1053.0381975283203
 21
1096.9922480620155
  0
LINE
  8
_0-0_
  6
CONTINUOUS
 62
    7
 10
1024.9254991561124
 20
1153.2765193094776
 11
1026.9254991561124
 21
1153.2765193094776
  0
LINE
  8
_0-0_
  6
CONTINUOUS
 62
    7
 10
1025.9254991561124
 20
1123.1049464342234
 11
1026.9254991561124
 21
1123.1049464342234
  0
LINE
  8
_0-0_
  6
CONTINUOUS
 62
    1
 10
1008.9254991561126
 20
1135.190732871851
 11
1000.08081120604
 21
1134.7272024179358
  0
LINE
  8
_0-0_
  6
CONTINUOUS
 62
    1
 10
1025.9254991561124
 20
1135.190732871851
 11
1025.9254991561124
 21
1130.190732871851
  0
LINE
  8
_0-0_
  6
CONTINUOUS
 62
    1
 10
1025.9254991561124
 20
1140.190732871851
 11
1025.9254991561124
 21
1145.190732871851
  0
LINE
  8
_0-0_
  6
CONTINUOUS
 62
    1
 10
1027.9254991561124
 20
1139.5155616309396
 11
1027.9254991561124
 21
1135.8659041127605
  0
LINE
  8
_0-0_
  6
CONTINUOUS
 62
    1
 10
1027.9254991561124
 20
1139.5155616309405
 11
1027.9254991561124
 21
1139.5155616309405
  0
LINE
  8
_0-0_
  6
CONTINUOUS
 62
    1
 10
1027.9254991561124
 20
1139.5155616309405
 11
1027.0474331139255
 21
1142.8913426639938
  0
LINE
  8
_0-0_
  6
CONTINUOUS
 62
    1
 10
1027.0474331139255
 20
1142.8913426639938
 11
1025.9254991561124
 21
1145.190732871851
  0
LINE
  8
_0-0_
  6
CONTINUOUS
 62
    1
 10
1025.9254991561124
 20
1130.190732871851
 11
1025.9254991561124
 21
1130.190732871851
  0
LINE
  8
_0-0_
  6
CONTINUOUS
 62
    1
 10
1025.9254991561124
 20
1130.190732871851
 11
1027.3910169237186
 21
1133.4650715577975
  0
LINE
  8
_0-0_
  6
CONTINUOUS
 62
    1
 10
1027.3910169237186
 20
1133.4650715577975
 11
1027.9254991561124
 21
1135.8659041127614
  0
LINE
  8
_0-0_
  6
CONTINUOUS
 62
    1
 10
1028.0938277756886
 20
1136.2120204409766
 11
1028.0938277756886
 21
1136.2120204409766
  0
LINE
  8
_0-0_
  6
CONTINUOUS
 62
    1
 10
1028.0938277756886
 20
1136.2120204409766
 11
1027.9254991561124
 21
1136.440732871851
  0
LINE
  8
_0-0_
  6
CONTINUOUS
 62
    1
 10
1027.9254991561124
 20
1138.940732871851
 11
1027.9254991561124
 21
1138.940732871851
  0
LINE
  8
_0-0_
  6
CONTINUOUS
 62
    1
 10
1027.9254991561124
 20
1138.940732871851
 11
1028.0938277756886
 21
1139.1694453027253
  0
LINE
  8
_0-0_
  6
CONTINUOUS
 62
    1
 10
1028.0938277756886
 20
1136.2120204409766
 11
1028.0938277756886
 21
1136.2120204409766
  0
LINE
  8
_0-0_
  6
CONTINUOUS
 62
    1
 10
1028.0938277756886
 20
1136.2120204409766
 11
1028.1233674505893
 21
1136.468325069759
  0
LINE
  8
_0-0_
  6
CONTINUOUS
 62
    1
 10
1028.1233674505893
 20
1136.468325069759
 11
1028.1468949974883
 21
1136.7617719410398
  0
LINE
  8
_0-0_
  6
CONTINUOUS
 62
    1
 10
1028.1468949974883
 20
1136.7617719410398
 11
1028.1636955437789
 21
1137.0834448201265
  0
LINE
  8
_0-0_
  6
CONTINUOUS
 62
    1
 10
1028.1636955437789
 20
1137.0834448201265
 11
1028.1732586133635
 21
1137.423569839362
  0
LINE
  8
_0-0_
  6
CONTINUOUS
 62
    1
 10
1028.1732586133635
 20
1137.423569839362
 11
1028.1752936372118
 21
1137.7718124721489
  0
LINE
  8
_0-0_
  6
CONTINUOUS
 62
    1
 10
1028.1752936372118
 20
1137.7718124721489
 11
1028.1697387821541
 21
1138.1175915423089
  0
LINE
  8
_0-0_
  6
CONTINUOUS
 62
    1
 10
1028.1697387821541
 20
1138.1175915423089
 11
1028.1567628296502
 21
1138.4504007277681
  0
LINE
  8
_0-0_
  6
CONTINUOUS
 62
    1
 10
1028.1567628296502
 20
1138.4504007277681
 11
1028.1367600474512
 21
1138.7601277898355
  0
LINE
  8
_0-0_
  6
CONTINUOUS
 62
    1
 10
1028.1367600474512
 20
1138.7601277898355
 11
1028.1103382099718
 21
1139.03736182846
  0
LINE
  8
_0-0_
  6
CONTINUOUS
 62
    1
 10
1028.1103382099718
 20
1139.03736182846
 11
1028.0938277756886
 21
1139.1694453027253
  0
LINE
  8
_0-0_
  6
DASHED1
 62
    1
 10
1027.9254991561124
 20
1138.940732871851
 11
1001.1754991561126
 21
1138.940732871851
  0
LINE
  8
_0-0_
  6
DASHED1
 62
    1
 10
1027.9254991561124
 20
1136.440732871851
 11
1001.1754991561126
 21
1136.440732871851
  0
LINE
  8
_0-0_
  6
CONTINUOUS
 62
    1
 10
1008.9254991561126
 20
1140.190732871851
 11
1025.9254991561124
 21
1140.190732871851
  0
LINE
  8
_0-0_
  6
CONTINUOUS
 62
    1
 10
1008.9254991561126
 20
1140.190732871851
 11
1000.08081120604
 21
1140.6542633257652
  0
LINE
  8
_0-0_
  6
CONTINUOUS
 62
    1
 10
1008.9254991561126
 20
1137.940732871851
 11
999.96321668486382
 21
1138.4104261934765
  0
LINE
  8
_0-0_
  6
CONTINUOUS
 62
    1
 10
1008.9254991561126
 20
1135.190732871851
 11
1025.9254991561124
 21
1135.190732871851
  0
LINE
  8
_0-0_
  6
CONTINUOUS
 62
    1
 10
1008.9254991561126
 20
1137.440732871851
 11
999.96321668486382
 21
1136.9710395502254
  0
LINE
  8
_0-0_
  6
CONTINUOUS
 62
    1
 10
1008.9254991561126
 20
1137.440732871851
 11
1008.9254991561126
 21
1137.940732871851
  0
LINE
  8
_0-0_
  6
CONTINUOUS
 62
    7
 10
1026.9254991561124
 20
1123.1049464342234
 11
1026.9254991561124
 21
1129.9410143982016
  0
LINE
  8
_0-0_
  6
CONTINUOUS
 62
    7
 10
1026.9254991561124
 20
1145.4404513454986
 11
1026.9254991561124
 21
1153.2765193094776
  0
LINE
  8
_0-0_
  6
CONTINUOUS
 62
    7
 10
1026.9254991561127
 20
1129.9410143982025
 11
1026.9254991561127
 21
1129.9410143982025
  0
LINE
  8
_0-0_
  6
CONTINUOUS
 62
    7
 10
1026.9254991561127
 20
1129.9410143982025
 11
1028.4098897342467
 21
1133.3890006415593
  0
LINE
  8
_0-0_
  6
CONTINUOUS
 62
    7
 10
1028.4098897342467
 20
1133.3890006415593
 11
1029.0287965184614
 21
1136.9676928419519
  0
LINE
  8
_0-0_
  6
CONTINUOUS
 62
    7
 10
1029.0287965184614
 20
1136.9676928419519
 11
1028.7634143393
 21
1140.5683542477773
  0
LINE
  8
_0-0_
  6
CONTINUOUS
 62
    7
 10
1028.7634143393
 20
1140.5683542477773
 11
1027.6218066999868
 21
1144.0815805842417
  0
LINE
  8
_0-0_
  6
CONTINUOUS
 62
    7
 10
1027.6218066999868
 20
1144.0815805842417
 11
1026.9254991561127
 21
1145.4404513454995
  0
LINE
  8
_0-0_
  6
CENTER2
 62
    1
 10
1033.4157269211205
 20
1137.690732871851
 11
995.63867470867683
 21
1137.690732871851
  0
LINE
  8
_0-0_
  6
CONTINUOUS
 62
    4
 10
1031.9254991561124
 20
1125.5902278084625
 11
1031.9254991561124
 21
1128.7761173263636
  0
LINE
  8
_0-0_
  6
CONTINUOUS
 62
    4
 10
1031.9254991561127
 20
1128.7761173263648
 11
1031.9254991561127
 21
1128.7761173263648
  0
LINE
  8
_0-0_
  6
CONTINUOUS
 62
    4
 10
1031.9254991561127
 20
1128.7761173263648
 11
1033.4958068683081
 21
1133.0944059596789
  0
LINE
  8
_0-0_
  6
CONTINUOUS
 62
    4
 10
1033.4958068683081
 20
1133.0944059596789
 11
1034.0460977680639
 21
1137.5523516603657
  0
LINE
  8
_0-0_
  6
CONTINUOUS
 62
    4
 10
1034.0460977680639
 20
1137.5523516603657
 11
1033.5596515448515
 21
1142.0145020041396
  0
LINE
  8
_0-0_
  6
CONTINUOUS
 62
    4
 10
1033.5596515448515
 20
1142.0145020041396
 11
1032.0512486210096
 21
1146.3452768107613
  0
LINE
  8
_0-0_
  6
CONTINUOUS
 62
    4
 10
1032.0512486210096
 20
1146.3452768107613
 11
1031.9254991561127
 21
1146.6053484173372
  0
LINE
  8
_0-0_
  6
CONTINUOUS
 62
    4
 10
1031.9254991561124
 20
1146.6053484173365
 11
1031.9254991561124
 21
1154.7765193094776
  0
LINE
  8
_0-0_
  6
CONTINUOUS
 62
    4
 10
1031.9254991561124
 20
1154.7765193094776
 11
1029.9254991561124
 21
1156.7765193094776
  0
LINE
  8
_0-0_
  6
CONTINUOUS
 62
    7
 10
1083.2097704035746
 20
1094.9922480620155
 11
1083.2097704035746
 21
1096.9922480620155
  0
LINE
  8
_0-0_
  6
CONTINUOUS
 62
    7
 10
1053.0381975283203
 20
1096.9922480620155
 11
1059.8742654922985
 21
1096.9922480620155
  0
LINE
  8
_0-0_
  6
CONTINUOUS
 62
    7
 10
1075.3737024395964
 20
1096.9922480620155
 11
1083.2097704035746
 21
1096.9922480620155
  0
LINE
  8
_0-0_
  6
CONTINUOUS
 62
    7
 10
1075.3737024395955
 20
1096.9922480620155
 11
1075.3737024395955
 21
1096.9922480620155
  0
LINE
  8
_0-0_
  6
CONTINUOUS
 62
    7
 10
1075.3737024395955
 20
1096.9922480620155
 11
1071.9257161962387
 21
1098.4766386401495
  0
LINE
  8
_0-0_
  6
CONTINUOUS
 62
    7
 10
1071.9257161962387
 20
1098.4766386401495
 11
1068.347023995846
 21
1099.0955454243642
  0
LINE
  8
_0-0_
  6
CONTINUOUS
 62
    7
 10
1068.347023995846
 20
1099.0955454243642
 11
1064.7463625900207
 21
1098.830163245203
  0
LINE
  8
_0-0_
  6
CONTINUOUS
 62
    7
 10
1064.7463625900207
 20
1098.830163245203
 11
1061.2331362535563
 21
1097.6885556058896
  0
LINE
  8
_0-0_
  6
CONTINUOUS
 62
    7
 10
1061.2331362535563
 20
1097.6885556058896
 11
1059.8742654922985
 21
1096.9922480620155
  0
LINE
  8
_0-0_
  6
CONTINUOUS
 62
    4
 10
1031.9254991561124
 20
1125.5902278084625
 11
1052.5234789025594
 21
1104.9922480620155
  0
LINE
  8
_0-0_
  6
CONTINUOUS
 62
    4
 10
1052.5234789025594
 20
1104.9922480620155
 11
1058.0665427665476
 21
1104.9922480620155
  0
LINE
  8
_0-0_
  6
CONTINUOUS
 62
    4
 10
1077.181425165347
 20
1104.9922480620155
 11
1077.181425165347
 21
1104.9922480620155
  0
LINE
  8
_0-0_
  6
CONTINUOUS
 62
    4
 10
1077.181425165347
 20
1104.9922480620155
 11
1072.3397857500183
 21
1106.6082575257446
  0
LINE
  8
_0-0_
  6
CONTINUOUS
 62
    4
 10
1072.3397857500183
 20
1106.6082575257446
 11
1067.3548590837916
 21
1107.111708070513
  0
LINE
  8
_0-0_
  6
CONTINUOUS
 62
    4
 10
1067.3548590837916
 20
1107.111708070513
 11
1062.3781096409255
 21
1106.4873026062764
  0
LINE
  8
_0-0_
  6
CONTINUOUS
 62
    4
 10
1062.3781096409255
 20
1106.4873026062764
 11
1058.0665427665469
 21
1104.9922480620155
  0
LINE
  8
_0-0_
  6
CONTINUOUS
 62
    4
 10
1084.7097704035746
 20
1104.9922480620155
 11
1086.7097704035746
 21
1102.9922480620155
  0
LINE
  8
_0-0_
  6
CONTINUOUS
 62
    4
 10
1086.7097704035746
 20
1102.9922480620155
 11
1523.9254991561124
 21
1102.9922480620155
  0
LINE
  8
_0-0_
  6
CONTINUOUS
 62
  136
 10
1023.9254991561126
 20
1122.2765193094776
 11
1052.2097704035746
 21
1093.9922480620155
  0
LINE
  8
_0-0_
  6
CONTINUOUS
 62
  136
 10
1052.2097704035746
 20
1093.9922480620155
 11
1082.2097704035746
 21
1093.9922480620155
  0
LINE
  8
_0-0_
  6
CONTINUOUS
 62
  136
 10
1082.2097704035746
 20
1093.9922480620155
 11
1082.2097704035746
 21
1095.9922480620155
  0
LINE
  8
_0-0_
  6
CONTINUOUS
 62
  136
 10
1023.9254991561126
 20
1152.2765193094776
 11
1023.9254991561126
 21
1122.2765193094776
  0
LINE
  8
_0-0_
  6
CONTINUOUS
 62
  136
 10
1023.9254991561126
 20
1152.2765193094776
 11
1025.9254991561124
 21
1152.2765193094776
  0
LINE
  8
_0-0_
  6
CONTINUOUS
 62
  136
 10
1025.9254991561124
 20
1152.2765193094776
 11
1025.9254991561124
 21
1123.1049464342234
  0
LINE
  8
_0-0_
  6
CONTINUOUS
 62
    1
 10
1381.3019641169649
 20
1025.9922480620155
 11
1384.2905482112405
 21
1026.253715290258
  0
LINE
  8
_0-0_
  6
CONTINUOUS
 62
    1
 10
1381.170731121676
 20
1027.4922480620155
 11
1384.1593152159517
 21
1027.753715290258
  0
LINE
  8
_0-0_
  6
CONTINUOUS
 62
    1
 10
1381.0394981263871
 20
1028.9922480620155
 11
1384.0280822206628
 21
1029.253715290258
  0
LINE
  8
_0-0_
  6
CONTINUOUS
 62
    1
 10
1380.9082651310982
 20
1030.4922480620155
 11
1383.8968492253739
 21
1030.753715290258
  0
LINE
  8
_0-0_
  6
CONTINUOUS
 62
    1
 10
1380.7770321358093
 20
1031.9922480620155
 11
1383.765616230085
 21
1032.253715290258
  0
LINE
  8
_0-0_
  6
CONTINUOUS
 62
    1
 10
1380.6457991405205
 20
1033.4922480620155
 11
1383.6343832347957
 21
1033.753715290258
  0
LINE
  8
_0-0_
  6
CONTINUOUS
 62
    1
 10
1380.5145661452316
 20
1034.9922480620155
 11
1383.5031502395068
 21
1035.253715290258
  0
LINE
  8
_0-0_
  6
CONTINUOUS
 62
    1
 10
1380.3833331499427
 20
1036.4922480620155
 11
1383.3719172442179
 21
1036.753715290258
  0
LINE
  8
_0-0_
  6
CONTINUOUS
 62
    1
 10
1380.4489496475871
 20
1035.7422480620155
 11
1381.4076628178118
 21
1024.7841063830067
  0
LINE
  8
_0-0_
  6
CONTINUOUS
 62
    1
 10
1380.3833331499427
 20
1036.4922480620155
 11
1380.0145661452316
 21
1036.4922480620155
  0
LINE
  8
_0-0_
  6
CONTINUOUS
 62
    1
 10
1380.4489496475871
 20
1035.7422480620155
 11
1379.9489496475871
 21
1035.7422480620155
  0
LINE
  8
_0-0_
  6
CONTINUOUS
 62
    1
 10
1379.0959351782094
 20
1025.9922480620155
 11
1376.1073510839342
 21
1026.253715290258
  0
LINE
  8
_0-0_
  6
CONTINUOUS
 62
    1
 10
1379.2271681734983
 20
1027.4922480620155
 11
1376.2385840792231
 21
1027.753715290258
  0
LINE
  8
_0-0_
  6
CONTINUOUS
 62
    1
 10
1379.3584011687872
 20
1028.9922480620155
 11
1376.369817074512
 21
1029.253715290258
  0
LINE
  8
_0-0_
  6
CONTINUOUS
 62
    1
 10
1379.4896341640761
 20
1030.4922480620155
 11
1376.5010500698008
 21
1030.753715290258
  0
LINE
  8
_0-0_
  6
CONTINUOUS
 62
    1
 10
1379.6208671593649
 20
1031.9922480620155
 11
1376.6322830650897
 21
1032.253715290258
  0
LINE
  8
_0-0_
  6
CONTINUOUS
 62
    1
 10
1379.7521001546538
 20
1033.4922480620155
 11
1376.7635160603786
 21
1033.753715290258
  0
LINE
  8
_0-0_
  6
CONTINUOUS
 62
    1
 10
1379.8833331499427
 20
1034.9922480620155
 11
1376.8947490556675
 21
1035.253715290258
  0
LINE
  8
_0-0_
  6
CONTINUOUS
 62
    1
 10
1380.0145661452316
 20
1036.4922480620155
 11
1377.0259820509564
 21
1036.753715290258
  0
LINE
  8
_0-0_
  6
CONTINUOUS
 62
    1
 10
1379.9489496475871
 20
1035.7422480620155
 11
1378.9902364773634
 21
1024.7841063830067
  0
LINE
  8
_0-0_
  6
CONTINUOUS
 62
    1
 10
1377.1989496475871
 20
1062.5976080185403
 11
1377.1989496475871
 21
1038.7307439664312
  0
LINE
  8
_0-0_
  6
CONTINUOUS
 62
    1
 10
1377.1989496475871
 20
1038.7307439664312
 11
1376.0016523830882
 21
1025.0455736112492
  0
LINE
  8
_0-0_
  6
CONTINUOUS
 62
    1
 10
1383.1989496475871
 20
1038.7307439664312
 11
1384.396246912087
 21
1025.0455736112492
  0
LINE
  8
_0-0_
  6
CONTINUOUS
 62
    1
 10
1378.9902364773634
 20
1024.7841063830067
 11
1376.0016523830882
 21
1025.0455736112492
  0
LINE
  8
_0-0_
  6
CONTINUOUS
 62
    1
 10
1381.4076628178118
 20
1024.7841063830067
 11
1384.396246912087
 21
1025.0455736112492
  0
LINE
  8
_0-0_
  6
CONTINUOUS
 62
    1
 10
1380.1989496475871
 20
1024.4922480620155
 11
1378.6989496475871
 21
1027.0903242733687
  0
LINE
  8
_0-0_
  6
CONTINUOUS
 62
    1
 10
1380.1989496475871
 20
1024.4922480620155
 11
1381.6989496475871
 21
1027.0903242733687
  0
LINE
  8
_0-0_
  6
CONTINUOUS
 62
    1
 10
1377.1989496475871
 20
1062.5976080185403
 11
1377.1989496475871
 21
1092.5976080185403
  0
LINE
  8
_0-0_
  6
CONTINUOUS
 62
    1
 10
1365.1989496475871
 20
1094.2422480620155
 11
1365.1989496475871
 21
1093.9922480620155
  0
LINE
  8
_0-0_
  6
CONTINUOUS
 62
    1
 10
1394.1989496475871
 20
1093.9922480620155
 11
1393.9489496475871
 21
1093.7422480620155
  0
LINE
  8
_0-0_
  6
CONTINUOUS
 62
    1
 10
1393.9489496475871
 20
1093.7422480620155
 11
1366.4489496475871
 21
1093.7422480620155
  0
LINE
  8
_0-0_
  6
CONTINUOUS
 62
    1
 10
1366.1989496475871
 20
1093.9922480620155
 11
1366.4489496475871
 21
1093.7422480620155
  0
LINE
  8
_0-0_
  6
CONTINUOUS
 62
    1
 10
1395.1989496475871
 20
1094.2422480620155
 11
1395.1989496475871
 21
1093.9922480620155
  0
LINE
  8
_0-0_
  6
CONTINUOUS
 62
    1
 10
1383.1989496475871
 20
1092.5976080185403
 11
1377.1989496475871
 21
1092.5976080185403
  0
LINE
  8
_0-0_
  6
CONTINUOUS
 62
    1
 10
1374.1989496475871
 20
1094.2422480620155
 11
1374.4489496475871
 21
1094.4922480620155
  0
LINE
  8
_0-0_
  6
CONTINUOUS
 62
    1
 10
1374.4489496475871
 20
1094.4922480620155
 11
1385.9489496475871
 21
1094.4922480620155
  0
LINE
  8
_0-0_
  6
CONTINUOUS
 62
    1
 10
1386.1989496475871
 20
1094.2422480620155
 11
1385.9489496475871
 21
1094.4922480620155
  0
LINE
  8
_0-0_
  6
CONTINUOUS
 62
    1
 10
1377.1989496475871
 20
1092.5976080185403
 11
1376.0543096041119
 21
1093.7422480620155
  0
LINE
  8
_0-0_
  6
CONTINUOUS
 62
    1
 10
1383.1989496475871
 20
1092.5976080185403
 11
1384.3435896910632
 21
1093.7422480620155
  0
LINE
  8
_0-0_
  6
CONTINUOUS
 62
    1
 10
1378.6989496475871
 20
1094.492248062016
 11
1378.6989496475871
 21
1094.492248062016
  0
LINE
  8
_0-0_
  6
CONTINUOUS
 62
    1
 10
1378.6989496475871
 20
1094.492248062016
 11
1378.190052319633
 21
1094.8227917871964
  0
LINE
  8
_0-0_
  6
CONTINUOUS
 62
    1
 10
1382.2078469755413
 20
1094.8227917871964
 11
1382.2078469755413
 21
1094.8227917871964
  0
LINE
  8
_0-0_
  6
CONTINUOUS
 62
    1
 10
1382.2078469755413
 20
1094.8227917871964
 11
1381.6989496475871
 21
1094.492248062016
  0
LINE
  8
_0-0_
  6
CONTINUOUS
 62
    1
 10
1382.2078469755411
 20
1094.8227917871964
 11
1382.2078469755411
 21
1094.8227917871964
  0
LINE
  8
_0-0_
  6
CONTINUOUS
 62
    1
 10
1382.2078469755411
 20
1094.8227917871964
 11
1382.0013649313589
 21
1094.896891042014
  0
LINE
  8
_0-0_
  6
CONTINUOUS
 62
    1
 10
1382.0013649313589
 20
1094.896891042014
 11
1381.7401174108454
 21
1094.961896733608
  0
LINE
  8
_0-0_
  6
CONTINUOUS
 62
    1
 10
1381.7401174108454
 20
1094.961896733608
 11
1381.432042287714
 21
1095.0158336969334
  0
LINE
  8
_0-0_
  6
CONTINUOUS
 62
    1
 10
1381.432042287714
 20
1095.0158336969334
 11
1381.0865002686871
 21
1095.0570630846535
  0
LINE
  8
_0-0_
  6
CONTINUOUS
 62
    1
 10
1381.0865002686871
 20
1095.0570630846535
 11
1380.7139904731605
 21
1095.0843321626851
  0
LINE
  8
_0-0_
  6
CONTINUOUS
 62
    1
 10
1380.7139904731605
 20
1095.0843321626851
 11
1380.3258314227719
 21
1095.0968123738912
  0
LINE
  8
_0-0_
  6
CONTINUOUS
 62
    1
 10
1380.3258314227719
 20
1095.0968123738912
 11
1379.9338171338497
 21
1095.0941245133695
  0
LINE
  8
_0-0_
  6
CONTINUOUS
 62
    1
 10
1379.9338171338497
 20
1095.0941245133695
 11
1379.5498587621939
 21
1095.0763502504019
  0
LINE
  8
_0-0_
  6
CONTINUOUS
 62
    1
 10
1379.5498587621939
 20
1095.0763502504019
 11
1379.185622688635
 21
1095.0440296469746
  0
LINE
  8
_0-0_
  6
CONTINUOUS
 62
    1
 10
1379.185622688635
 20
1095.0440296469746
 11
1378.8521760419555
 21
1094.9981447482674
  0
LINE
  8
_0-0_
  6
CONTINUOUS
 62
    1
 10
1378.8521760419555
 20
1094.9981447482674
 11
1378.559650429783
 21
1094.9400897437088
  0
LINE
  8
_0-0_
  6
CONTINUOUS
 62
    1
 10
1378.559650429783
 20
1094.9400897437088
 11
1378.316934094818
 21
1094.8716286052352
  0
LINE
  8
_0-0_
  6
CONTINUOUS
 62
    1
 10
1378.316934094818
 20
1094.8716286052352
 11
1378.1900523196332
 21
1094.8227917871964
  0
LINE
  8
_0-0_
  6
CONTINUOUS
 62
    1
 10
1383.1989496475871
 20
1092.5976080185403
 11
1383.1989496475871
 21
1038.7307439664312
  0
LINE
  8
_0-0_
  6
DASHED1
 62
    1
 10
1378.6989496475871
 20
1094.4922480620155
 11
1378.6989496475871
 21
1027.0903242733687
  0
LINE
  8
_0-0_
  6
DASHED1
 62
    1
 10
1381.6989496475871
 20
1094.4922480620155
 11
1381.6989496475871
 21
1027.0903242733687
  0
LINE
  8
_0-0_
  6
CONTINUOUS
 62
    3
 10
1023.9254991561126
 20
1093.9922480620155
 11
1523.9254991561124
 21
1093.9922480620155
  0
LINE
  8
_0-0_
  6
CONTINUOUS
 62
  136
 10
1053.0381975283203
 20
1095.9922480620155
 11
1082.2097704035746
 21
1095.9922480620155
  0
LINE
  8
_0-0_
  6
DASHED1
 62
    1
 10
1066.373983965947
 20
1097.9922480620155
 11
1066.373983965947
 21
1027.2422480620155
  0
LINE
  8
_0-0_
  6
CONTINUOUS
 62
    1
 10
1065.7991552068574
 20
1097.9922480620155
 11
1069.4488127250365
 21
1097.9922480620155
  0
LINE
  8
_0-0_
  6
CONTINUOUS
 62
    1
 10
1065.7991552068574
 20
1097.9922480620155
 11
1065.7991552068574
 21
1097.9922480620155
  0
LINE
  8
_0-0_
  6
CONTINUOUS
 62
    1
 10
1065.7991552068574
 20
1097.9922480620155
 11
1062.4233741738042
 21
1097.1141820198286
  0
LINE
  8
_0-0_
  6
CONTINUOUS
 62
    1
 10
1062.4233741738042
 20
1097.1141820198286
 11
1060.123983965947
 21
1095.9922480620155
  0
LINE
  8
_0-0_
  6
CONTINUOUS
 62
    1
 10
1069.1026963968213
 20
1098.1605766815917
 11
1069.1026963968213
 21
1098.1605766815917
  0
LINE
  8
_0-0_
  6
CONTINUOUS
 62
    1
 10
1069.1026963968213
 20
1098.1605766815917
 11
1068.873983965947
 21
1097.9922480620155
  0
LINE
  8
_0-0_
  6
CONTINUOUS
 62
    1
 10
1066.373983965947
 20
1097.9922480620155
 11
1066.373983965947
 21
1097.9922480620155
  0
LINE
  8
_0-0_
  6
CONTINUOUS
 62
    1
 10
1066.373983965947
 20
1097.9922480620155
 11
1066.1452715350727
 21
1098.1605766815917
  0
LINE
  8
_0-0_
  6
CONTINUOUS
 62
    1
 10
1069.1026963968213
 20
1098.1605766815917
 11
1069.1026963968213
 21
1098.1605766815917
  0
LINE
  8
_0-0_
  6
CONTINUOUS
 62
    1
 10
1069.1026963968213
 20
1098.1605766815917
 11
1068.846391768039
 21
1098.1901163564924
  0
LINE
  8
_0-0_
  6
CONTINUOUS
 62
    1
 10
1068.846391768039
 20
1098.1901163564924
 11
1068.5529448967582
 21
1098.2136439033914
  0
LINE
  8
_0-0_
  6
CONTINUOUS
 62
    1
 10
1068.5529448967582
 20
1098.2136439033914
 11
1068.2312720176715
 21
1098.230444449682
  0
LINE
  8
_0-0_
  6
CONTINUOUS
 62
    1
 10
1068.2312720176715
 20
1098.230444449682
 11
1067.8911469984359
 21
1098.2400075192666
  0
LINE
  8
_0-0_
  6
CONTINUOUS
 62
    1
 10
1067.8911469984359
 20
1098.2400075192666
 11
1067.5429043656491
 21
1098.2420425431148
  0
LINE
  8
_0-0_
  6
CONTINUOUS
 62
    1
 10
1067.5429043656491
 20
1098.2420425431148
 11
1067.1971252954891
 21
1098.2364876880572
  0
LINE
  8
_0-0_
  6
CONTINUOUS
 62
    1
 10
1067.1971252954891
 20
1098.2364876880572
 11
1066.8643161100299
 21
1098.2235117355533
  0
LINE
  8
_0-0_
  6
CONTINUOUS
 62
    1
 10
1066.8643161100299
 20
1098.2235117355533
 11
1066.5545890479625
 21
1098.2035089533542
  0
LINE
  8
_0-0_
  6
CONTINUOUS
 62
    1
 10
1066.5545890479625
 20
1098.2035089533542
 11
1066.277355009338
 21
1098.1770871158749
  0
LINE
  8
_0-0_
  6
CONTINUOUS
 62
    1
 10
1066.277355009338
 20
1098.1770871158749
 11
1066.1452715350727
 21
1098.1605766815917
  0
LINE
  8
_0-0_
  6
CONTINUOUS
 62
    1
 10
1065.123983965947
 20
1095.9651078438176
 11
1065.123983965947
 21
1095.9922480620155
  0
LINE
  8
_0-0_
  6
CONTINUOUS
 62
    1
 10
1075.123983965947
 20
1095.9922480620155
 11
1075.123983965947
 21
1095.9922480620155
  0
LINE
  8
_0-0_
  6
CONTINUOUS
 62
    1
 10
1075.123983965947
 20
1095.9922480620155
 11
1074.9923621853827
 21
1096.0689403844765
  0
LINE
  8
_0-0_
  6
CONTINUOUS
 62
    1
 10
1074.9923621853827
 20
1096.0689403844765
 11
1074.9923621853827
 21
1096.0689403844765
  0
LINE
  8
_0-0_
  6
CONTINUOUS
 62
    1
 10
1074.9923621853827
 20
1096.0689403844765
 11
1071.71070089261
 21
1097.5006417628972
  0
LINE
  8
_0-0_
  6
CONTINUOUS
 62
    1
 10
1071.71070089261
 20
1097.5006417628972
 11
1069.4488127250365
 21
1097.9922480620155
  0
LINE
  8
_0-0_
  6
CONTINUOUS
 62
    1
 10
1075.123983965947
 20
1095.9922480620155
 11
1060.123983965947
 21
1095.9922480620155
  0
LINE
  8
_0-0_
  6
CONTINUOUS
 62
    1
 10
1070.123983965947
 20
1034.9922480620155
 11
1070.5875144198621
 21
1026.147560111943
  0
LINE
  8
_0-0_
  6
CONTINUOUS
 62
    1
 10
1067.623983965947
 20
1025.9922480620155
 11
1066.9382516597502
 21
1026.6779803682123
  0
LINE
  8
_0-0_
  6
CONTINUOUS
 62
    1
 10
1067.623983965947
 20
1025.9922480620155
 11
1068.3097162721442
 21
1026.6779803682123
  0
LINE
  8
_0-0_
  6
DASHED1
 62
    1
 10
1066.9382516597502
 20
1026.6779803682123
 11
1066.373983965947
 21
1027.2422480620155
  0
LINE
  8
_0-0_
  6
CONTINUOUS
 62
    1
 10
1065.123983965947
 20
1034.9922480620155
 11
1064.6604535120327
 21
1026.147560111943
  0
LINE
  8
_0-0_
  6
CONTINUOUS
 62
    1
 10
1067.373983965947
 20
1034.9922480620155
 11
1066.9042906443215
 21
1026.0299655907668
  0
LINE
  8
_0-0_
  6
CONTINUOUS
 62
    1
 10
1067.873983965947
 20
1034.9922480620155
 11
1068.3436772875725
 21
1026.0299655907668
  0
LINE
  8
_0-0_
  6
DASHED1
 62
    1
 10
1068.3097162721442
 20
1026.6779803682123
 11
1068.873983965947
 21
1027.2422480620155
  0
LINE
  8
_0-0_
  6
CONTINUOUS
 62
    1
 10
1070.5875144198621
 20
1026.147560111943
 11
1068.3436772875725
 21
1026.0299655907668
  0
LINE
  8
_0-0_
  6
CONTINUOUS
 62
    1
 10
1066.9042906443215
 20
1026.0299655907668
 11
1064.6604535120327
 21
1026.147560111943
  0
LINE
  8
_0-0_
  6
CONTINUOUS
 62
    1
 10
1067.873983965947
 20
1034.9922480620155
 11
1067.373983965947
 21
1034.9922480620155
  0
LINE
  8
_0-0_
  6
DASHED1
 62
    1
 10
1068.873983965947
 20
1097.9922480620155
 11
1068.873983965947
 21
1027.2422480620155
  0
LINE
  8
_0-0_
  6
CENTER2
 62
    1
 10
1067.623983965947
 20
1106.5473384735117
 11
1067.623983965947
 21
1021.46189482866
  0
LINE
  8
_0-0_
  6
CONTINUOUS
 62
    1
 10
1070.123983965947
 20
1034.9922480620155
 11
1070.123983965947
 21
1095.9922480620155
  0
LINE
  8
_0-0_
  6
CONTINUOUS
 62
    1
 10
1065.123983965947
 20
1034.9922480620155
 11
1065.123983965947
 21
1095.9922480620155
  0
LINE
  8
_0-0_
  6
CONTINUOUS
 62
    7
 10
1024.9254991561124
 20
1153.2765193094776
 11
1024.9254991561124
 21
1191.1049464342234
  0
LINE
  8
_0-0_
  6
CONTINUOUS
 62
    7
 10
1024.9254991561124
 20
1191.1049464342234
 11
1023.9254991561126
 21
1191.1049464342234
  0
LINE
  8
_0-0_
  6
CONTINUOUS
 62
    4
 10
1029.9254991561124
 20
1259.7520630606389
 11
1029.9254991561124
 21
1156.7765193094776
  0
LINE
  8
_0-0_
  6
CONTINUOUS
 62
    1
 10
1385.1989496475871
 20
1052.9922480620155
 11
1375.1989496475871
 21
1052.9922480620155
  0
LINE
  8
_0-0_
  6
CONTINUOUS
 62
    1
 10
1375.1989496475871
 20
1052.9922480620155
 11
1375.1989496475871
 21
1087.9922480620155
  0
LINE
  8
_0-0_
  6
CONTINUOUS
 62
    1
 10
1375.1989496475871
 20
1087.9922480620155
 11
1385.1989496475871
 21
1087.9922480620155
  0
LINE
  8
_0-0_
  6
CONTINUOUS
 62
    1
 10
1385.1989496475871
 20
1087.9922480620155
 11
1385.1989496475871
 21
1052.9922480620155
  0
LINE
  8
_0-0_
  6
CONTINUOUS
 62
    1
 10
1376.1989496475871
 20
1052.9922480620155
 11
1376.1989496475871
 21
1087.9922480620155
  0
LINE
  8
_0-0_
  6
CONTINUOUS
 62
    1
 10
1384.1989496475871
 20
1087.9922480620155
 11
1384.1989496475871
 21
1052.9922480620155
  0
LINE
  8
_0-0_
  6
CONTINUOUS
 62
    1
 10
1072.623983965947
 20
1052.9922480620155
 11
1062.623983965947
 21
1052.9922480620155
  0
LINE
  8
_0-0_
  6
CONTINUOUS
 62
    1
 10
1062.623983965947
 20
1052.9922480620155
 11
1062.623983965947
 21
1087.9922480620155
  0
LINE
  8
_0-0_
  6
CONTINUOUS
 62
    1
 10
1062.623983965947
 20
1087.9922480620155
 11
1072.623983965947
 21
1087.9922480620155
  0
LINE
  8
_0-0_
  6
CONTINUOUS
 62
    1
 10
1072.623983965947
 20
1087.9922480620155
 11
1072.623983965947
 21
1052.9922480620155
  0
LINE
  8
_0-0_
  6
CONTINUOUS
 62
    1
 10
1063.623983965947
 20
1052.9922480620155
 11
1063.623983965947
 21
1087.9922480620155
  0
LINE
  8
_0-0_
  6
CONTINUOUS
 62
    1
 10
1071.623983965947
 20
1087.9922480620155
 11
1071.623983965947
 21
1052.9922480620155
  0
LINE
  8
_0-0_
  6
CONTINUOUS
 62
    7
 10
1023.9254991561126
 20
1052.9922480620155
 11
1523.9254991561124
 21
1052.9922480620155
  0
CIRCLE
  8
_0-0_
  6
DASHED2
 62
    1
 10
1052.2097704035746
 20
1093.9922480620155
 40
80
  0
TEXT
  8
_0-0_
 62
    7
 10
1039.8152235685775
 20
1162.0712712978195
 40
24
 41
1
 50
0
  1
Ｂ
  0
TEXT
  8
_0-0_
 62
    7
 10
1281.8543906770597
 20
1152.7130571416203
 40
30
 41
1
 50
0
  1
断熱材
  0
LINE
  8
_0-0_
  6
CONTINUOUS
 62
    7
 10
873.92549915611346
 20
1232.3991718858972
 11
913.14886520765469
 21
1271.6225379374384
  0
LINE
  8
_0-0_
  6
CONTINUOUS
 62
    7
 10
873.92549915611255
 20
1239.4702396977611
 11
906.31639259688984
 21
1271.8611331385384
  0
LINE
  8
_0-0_
  6
CONTINUOUS
 62
    4
 10
873.92549915611255
 20
1273.8182537588557
 11
873.92549915611255
 21
1272.9922480620146
  0
LINE
  8
_0-0_
  6
CONTINUOUS
 62
    7
 10
873.92549915611255
 20
1272.9922480620146
 11
873.92549915611255
 21
772.99224806201551
  0
LINE
  8
_0-0_
  6
CONTINUOUS
 62
    7
 10
873.92549915611255
 20
1272.9922480620146
 11
1013.5056235992275
 21
1268.1180027107077
  0
ARC
  8
_0-0_
  6
CONTINUOUS
 62
    4
 10
878.92549915611255
 20
1273.8182537588557
 40
5
 50
88.000000000001251
 51
180
  0
LINE
  8
_0-0_
  6
CONTINUOUS
 62
    4
 10
879.09999663962492
 20
1278.8152078939504
 11
1016.1377012032914
 21
1274.0297458012049
  0
LINE
  8
_0-0_
  6
CONTINUOUS
 62
    7
 10
759.09516684022276
 20
425.6030921731483
 11
1073.1504468372314
 21
414.63604013270947
  0
LINE
  8
_0-0_
  6
CONTINUOUS
 62
    7
 10
759.09516684022276
 20
425.6030921731483
 11
759.09516684022276
 21
252.65735719276404
  0
LINE
  8
_0-0_
  6
CONTINUOUS
 62
    4
 10
769.44416180724772
 20
438.74992615346969
 11
1079.0726214463753
 21
427.93746208632751
  0
LINE
  8
_0-0_
  6
CONTINUOUS
 62
    4
 10
759.09516684022276
 20
428.75601788327845
 11
759.09516684022276
 21
425.6030921731483
  0
ARC
  8
_0-0_
  6
CONTINUOUS
 62
    4
 10
769.09516684022276
 20
428.75601788327845
 40
10
 50
88.000000000000128
 51
180
  0
LINE
  8
_0-0_
  6
CONTINUOUS
 62
    7
 10
1124.4670144048609
 20
439.4193768810805
 11
1084.8728068387277
 21
402.49718100199397
  0
POINT
  8
_0-0_
 62
    7
 10
1084.8728068387277
 20
402.49718100199397
  0
TEXT
  8
_0-0_
 62
    7
 10
1099.4794166220113
 20
441.21918718651011
 40
21.617968000000001
 41
1
 50
0
  1
面取り
  0
LINE
  8
_0-0_
  6
CONTINUOUS
 62
    7
 10
672.13606690525205
 20
1633.3565543671132
 11
1706.8525777203677
 21
1633.3565543671132
  0
LINE
  8
_0-0_
  6
CONTINUOUS
 62
    7
 10
672.13606690525205
 20
1553.3565543671132
 11
1706.8525777203677
 21
1553.3565543671132
  0
LINE
  8
_0-0_
  6
CONTINUOUS
 62
    7
 10
672.13606690525205
 20
1473.3565543671132
 11
1706.8525777203677
 21
1473.3565543671132
  0
LINE
  8
_0-0_
  6
CONTINUOUS
 62
    7
 10
1189.4943223128098
 20
1633.3565543671132
 11
1189.4943223128098
 21
1473.3565543671132
  0
TEXT
  8
_0-0_
 62
    7
 10
696.13606690525205
 20
1497.3565543671132
 40
20
 41
1
 50
0
  1
施工部位：パラペット
  0
TEXT
  8
_0-0_
 62
    7
 10
1213.4943223128098
 20
1577.3565543671132
 40
20
 41
1
 50
0
  1
構造：ＲＣ造
  0
TEXT
  8
_0-0_
 62
    7
 10
1213.4943223128098
 20
1497.3565543671132
 40
20
 41
1
 50
0
  1
下地：コンクリートスラブ
  0
TEXT
  8
_0-0_
 62
    7
 10
696.13606690525205
 20
1577.3565543671132
 40
20
 41
1
 50
0
  1
図面番号：dan-kikai-SP-para-01
  0
ENDSEC
  0
EOF
