  0
SECTION
  2
HEADER
  9
$ACADVER
  1
AC1009
  9
$INSBASE
 10
0
 20
0
 30
0
  9
$EXTMIN
 10
0
 20
0
  9
$EXTMAX
 10
2378
 20
1682
  9
$LIMMIN
 10
0
 20
0
  9
$LIMMAX
 10
2378
 20
1682
  9
$LTSCALE
 40
1
  0
ENDSEC
  0
SECTION
  2
TABLES
  0
TABLE
  2
LTYPE
 70
     9
  0
LTYPE
  2
CONTINUOUS
 70
    64
  3
実線
 72
    65
 73
     0
 40
0.0
  0
LTYPE
  2
DASHED1
 70
    64
  3
--  --  --  --  --  --  --  --  
 72
    65
 73
     2
 40
2.5
 49
1.25
 49
-1.25
  0
LTYPE
  2
DASHED2
 70
    64
  3
----    ----    ----    ----    
 72
    65
 73
     2
 40
5.0
 49
2.5
 49
-2.5
  0
LTYPE
  2
DASHED3
 70
    64
  3
------  ------  ------  ------  
 72
    65
 73
     2
 40
5.0
 49
3.75
 49
-1.25
  0
LTYPE
  2
CENTER1
 70
    64
  3
----- - ----- - ----- - ----- - 
 72
    65
 73
     4
 40
10.0
 49
6.25
 49
-1.25
 49
1.25
 49
-1.25
  0
LTYPE
  2
CENTER2
 70
    64
  3
----------  --  ----------  --  
 72
    65
 73
     4
 40
20.0
 49
12.5
 49
-2.5
 49
2.5
 49
-2.5
  0
LTYPE
  2
PHANTOM1
 70
    64
  3
--- - - --- - - --- - - --- - - 
 72
    65
 73
     6
 40
10.0
 49
3.25
 49
-1.25
 49
1.25
 49
-1.25
 49
1.25
 49
-1.25
  0
LTYPE
  2
PHANTOM2
 70
    64
  3
--------  -  -  --------  -  -  
 72
    65
 73
     6
 40
20.0
 49
10.0
 49
-2.5
 49
1.25
 49
-2.5
 49
1.25
 49
-2.5
  0
LTYPE
  2
DOT
 70
    64
  3
-   -   -   -   -   -   -   -   
 72
    65
 73
     2
 40
2.5
 49
0.625
 49
-1.875
  0
LTYPE
  2
DUMMY
 70
    64
  3
ダミー
 72
    65
 73
     0
 40
0.0
  0
LTYPE
  2
RAND1
 70
    64
  3
ランダム線1
 72
    65
 73
     4
 40
10.0
 49
1.0
 49
-2.0
 49
3.0
 49
-4.0
  0
LTYPE
  2
RAND2
 70
    64
  3
ランダム線2
 72
    65
 73
     4
 40
14.0
 49
2.0
 49
-3.0
 49
4.0
 49
-5.0
  0
LTYPE
  2
RAND3
 70
    64
  3
ランダム線3
 72
    65
 73
     4
 40
18.0
 49
3.0
 49
-4.0
 49
5.0
 49
-6.0
  0
LTYPE
  2
RAND4
 70
    64
  3
ランダム線4
 72
    65
 73
     4
 40
22.0
 49
4.0
 49
-5.0
 49
6.0
 49
-7.0
  0
LTYPE
  2
RAND5
 70
    64
  3
ランダム線5
 72
    65
 73
     4
 40
26.0
 49
5.0
 49
-6.0
 49
7.0
 49
-8.0
  0
LTYPE
  2
LONG1
 70
    64
  3
----------  --  ----------  --  
 72
    65
 73
     4
 40
40.0
 49
32.5
 49
-2.5
 49
2.5
 49
-2.5
  0
LTYPE
  2
LONG2
 70
    64
  3
--------  -  -  --------  -  -  
 72
    65
 73
     6
 40
40.0
 49
30.0
 49
-2.5
 49
1.25
 49
-2.5
 49
1.25
 49
-2.5
  0
LTYPE
  2
LONG3
 70
    64
  3
+++++++++++++++..+++++++++++++++
 72
    65
 73
     2
 40
40.0
 49
37.5
 49
-2.5
  0
LTYPE
  2
LONG4
 70
    64
  3
+++++++++++++++..+++++++++++++++
 72
    65
 73
     2
 40
80.0
 49
75.0
 49
-5.0
  0
LTYPE
  2
LONG5
 70
    64
  3
----------  --  ----------  --  
 72
    65
 73
     4
 40
60.0
 49
37.5
 49
-7.5
 49
7.5
 49
-7.5
  0
LTYPE
  2
dashed
 70
   64
  3
-------   -------------   ------
 72
   65
 73
    2
 40
7.5
 49
6
 49
-1.5
  0
LTYPE
  2
dashed_spaced
 70
   64
  3
----        --------        ----
 72
   65
 73
    2
 40
12
 49
6
 49
-6
  0
LTYPE
  2
long_dashed_dotted
 70
   64
  3
------------- --- --------------
 72
   65
 73
    4
 40
15.25
 49
12
 49
-1.5
 49
0.25
 49
-1.5
  0
LTYPE
  2
long_dashed_double-dotted
 70
   64
  3
----------- --- --- ------------
 72
   65
 73
    6
 40
17
 49
12
 49
-1.5
 49
0.25
 49
-1.5
 49
0.25
 49
-1.5
  0
LTYPE
  2
long_dashed_triplicate-dotted
 70
   64
  3
--------- --- --- --- ----------
 72
   65
 73
    8
 40
18.75
 49
12
 49
-1.5
 49
0.25
 49
-1.5
 49
0.25
 49
-1.5
 49
0.25
 49
-1.5
  0
LTYPE
  2
dotted
 70
   64
  3
   -       -       -       -    
 72
   65
 73
    2
 40
1.75
 49
0.25
 49
-1.5
  0
LTYPE
  2
chain
 70
   64
  3
-------------- -- --------------
 72
   65
 73
    4
 40
18.5
 49
12
 49
-1.5
 49
3.5
 49
-1.5
  0
LTYPE
  2
chain_double_dash
 70
   64
  3
------------ -- -- -------------
 72
   65
 73
    6
 40
23.5
 49
12
 49
-1.5
 49
3.5
 49
-1.5
 49
3.5
 49
-1.5
  0
LTYPE
  2
dashed_dotted
 70
   64
  3
-----------     -     ----------
 72
   65
 73
    4
 40
9.25
 49
6
 49
-1.5
 49
0.25
 49
-1.5
  0
LTYPE
  2
double-dashed_dotted
 70
   64
  3
------   -----------   -   -----
 72
   65
 73
    6
 40
16.75
 49
6
 49
-1.5
 49
6
 49
-1.5
 49
0.25
 49
-1.5
  0
LTYPE
  2
dashed_double-dotted
 70
   64
  3
---------    -    -    ---------
 72
   65
 73
    6
 40
11
 49
6
 49
-1.5
 49
0.25
 49
-1.5
 49
0.25
 49
-1.5
  0
LTYPE
  2
double-dashed_double-dotted
 70
   64
  3
-----   ---------   -   -   ----
 72
   65
 73
    8
 40
18.5
 49
6
 49
-1.5
 49
6
 49
-1.5
 49
0.25
 49
-1.5
 49
0.25
 49
-1.5
  0
LTYPE
  2
dashed_triplicate-dotted
 70
   64
  3
-------    -    -    -    ------
 72
   65
 73
    8
 40
12.75
 49
6
 49
-1.5
 49
0.25
 49
-1.5
 49
0.25
 49
-1.5
 49
0.25
 49
-1.5
  0
LTYPE
  2
double-dashed_triplicate-dotted
 70
   64
  3
-----  ---------  -  -  -  -----
 72
   65
 73
   10
 40
20.25
 49
6
 49
-1.5
 49
6
 49
-1.5
 49
0.25
 49
-1.5
 49
0.25
 49
-1.5
 49
0.25
 49
-1.5
  0
LTYPE
  2
undefined
 70
   64
  3
--------------------------------
 72
   65
 73
    0
 40
0
  0
ENDTAB
  0
TABLE
  2
STYLE
  5
3
100
AcDbSymbolTable
 70
     1
  0
STYLE
  5
10
100
AcDbSymbolTableRecord
100
AcDbTextStyleTableRecord
  2
STANDARD
 70
     0
 40
0.0
 41
1.0
 50
0.0
 71
     0
 42
0.2
  3
txt
  4
bigfont.shx
  0
STYLE
  5
26
100
AcDbSymbolTableRecord
100
AcDbTextStyleTableRecord
  2
TATEGAKI
 70
    68
 40
0.0
 41
1.0
 50
0.0
 71
     0
 42
1.0
  3
txt
  4
bigfont.shx
  0
ENDTAB
  0
TABLE
  2
LAYER
 70
    2
  0
LAYER
  2
_0-0_
 70
   64
 62
    7
  6
CONTINUOUS
  0
LAYER
  2
ADD_LINE
 70
   64
 62
    7
  6
CONTINUOUS
  0
ENDTAB
  0
ENDSEC
  0
SECTION
  2
BLOCKS
  0
ENDSEC
  0
SECTION
  2
ENTITIES
  0
LINE
  8
_0-0_
  6
CONTINUOUS
 62
    7
 10
1004.7741083315865
 20
450.15363023131567
 11
1346.7741083315864
 21
450.15363023131567
  0
LINE
  8
_0-0_
  6
CONTINUOUS
 62
    7
 10
1328.2327583315887
 20
1044.1618066332935
 11
1225.7741083315864
 21
1044.1618066332935
  0
LINE
  8
_0-0_
  6
CONTINUOUS
 62
    7
 10
831.76580077018446
 20
1033.3618066332942
 11
1522.2318974469304
 21
1033.3618066332942
  0
LINE
  8
_0-0_
  6
CONTINUOUS
 62
    7
 10
672.13606690525205
 20
167.53106997205509
 11
1706.8525777203668
 21
167.53106997205509
  0
LINE
  8
_0-0_
  6
CONTINUOUS
 62
    7
 10
672.13606690525205
 20
1633.3565543671129
 11
672.13606690525205
 21
167.53106997205509
  0
LINE
  8
_0-0_
  6
CONTINUOUS
 62
    7
 10
1706.8525777203668
 20
1633.3565543671129
 11
1706.8525777203668
 21
167.53106997205509
  0
LINE
  8
_0-0_
  6
CONTINUOUS
 62
    7
 10
869.37620544158074
 20
259.35363023131526
 11
1049.3762054415797
 21
439.35363023131504
  0
LINE
  8
_0-0_
  6
CONTINUOUS
 62
    7
 10
1018.7241083315872
 20
455.55363023131531
 11
1332.8241083315875
 21
455.55363023131531
  0
LINE
  8
_0-0_
  6
CONTINUOUS
 62
    7
 10
1509.4108012007759
 20
259.35363023131549
 11
1522.2318974469304
 21
272.17472647747081
  0
LINE
  8
_0-0_
  6
CONTINUOUS
 62
    7
 10
1266.801541131586
 20
1063.6299766332945
 11
1266.6644981315872
 21
1060.0325866332946
  0
LINE
  8
_0-0_
  6
CONTINUOUS
 62
    7
 10
1234.5620687315873
 20
1068.4607590332939
 11
1266.801541131586
 21
1063.6299766332945
  0
LINE
  8
_0-0_
  6
CONTINUOUS
 62
    7
 10
1149.9598997315875
 20
1401.8218048332944
 11
1199.3541083315863
 21
1401.8218048332944
  0
LINE
  8
_0-0_
  6
CONTINUOUS
 62
    7
 10
1199.3541083315863
 20
1401.8218048332944
 11
1199.3541083315863
 21
1304.6218048332946
  0
LINE
  8
_0-0_
  6
CONTINUOUS
 62
    7
 10
1199.3541083315863
 20
1401.8218048332944
 11
1210.1541083315856
 21
1401.8218048332944
  0
LINE
  8
_0-0_
  6
CONTINUOUS
 62
    7
 10
1220.9541083315848
 20
1391.0218048332952
 11
1220.9541083315848
 21
1315.4218048332948
  0
LINE
  8
_0-0_
  6
CONTINUOUS
 62
    7
 10
1210.1541083315856
 20
1304.6218048332946
 11
1199.3541083315863
 21
1304.6218048332946
  0
LINE
  8
_0-0_
  6
CONTINUOUS
 62
    7
 10
1199.3541083315863
 20
1304.6218048332946
 11
1199.3541083315863
 21
1301.0218048332952
  0
LINE
  8
_0-0_
  6
CONTINUOUS
 62
    7
 10
1199.3541083315863
 20
1301.0218048332952
 11
1204.7541083315859
 21
1301.0218048332952
  0
LINE
  8
_0-0_
  6
CONTINUOUS
 62
    7
 10
1117.2741083315864
 20
1105.1818048332939
 11
1117.2741083315864
 21
1061.7127426332931
  0
LINE
  8
_0-0_
  6
CONTINUOUS
 62
    7
 10
1139.1913277315866
 20
1391.845130233294
 11
1117.2741083315864
 21
1105.1818048332939
  0
LINE
  8
_0-0_
  6
CONTINUOUS
 62
    7
 10
1204.7541083315859
 20
1301.0218048332952
 11
1234.2741083315864
 21
1105.1818048332939
  0
LINE
  8
_0-0_
  6
CONTINUOUS
 62
    7
 10
1234.2741083315864
 20
1105.1818048332939
 11
1234.2741083315864
 21
1061.7127426332931
  0
ARC
  8
_0-0_
  6
CONTINUOUS
 62
    7
 10
1317.9741083315871
 20
1040.7854008332938
 40
10.800000000000001
 50
18.217805999999996
 51
87.818359000000001
  0
ARC
  8
_0-0_
  6
CONTINUOUS
 62
    7
 10
1033.5741083315875
 20
1040.7854008332938
 40
10.800000000000001
 50
92.181640999999999
 51
161.78219399999998
  0
ARC
  8
_0-0_
  6
CONTINUOUS
 62
    7
 10
1110.0741083315875
 20
1061.7127426332931
 40
7.2000000000000002
 50
272.18164100000001
 51
0.0000000000000127
  0
ARC
  8
_0-0_
  6
CONTINUOUS
 62
    7
 10
1241.4741083315871
 20
1061.7127426332931
 40
7.2000000000000002
 50
180
 51
267.81835899999999
  0
ARC
  8
_0-0_
  6
CONTINUOUS
 62
    7
 10
1149.9598997315875
 20
1391.0218048332952
 40
10.800000000000001
 50
90
 51
175.627882
  0
ARC
  8
_0-0_
  6
CONTINUOUS
 62
    7
 10
1210.1541083315856
 20
1391.0218048332952
 40
10.800000000000001
 50
0
 51
90
  0
ARC
  8
_0-0_
  6
CONTINUOUS
 62
    7
 10
1210.1541083315856
 20
1315.4218048332948
 40
10.800000000000001
 50
270
 51
0
  0
LINE
  8
_0-0_
  6
CONTINUOUS
 62
    7
 10
1084.7466755315868
 20
1063.6299766332945
 11
1116.9861461315863
 21
1068.4607590332939
  0
LINE
  8
_0-0_
  6
CONTINUOUS
 62
    7
 10
1084.7466755315868
 20
1063.6299766332945
 11
1084.8837185315874
 21
1060.0325866332946
  0
LINE
  8
_0-0_
  6
CONTINUOUS
 62
    7
 10
1072.2903119315865
 20
1019.3414122332938
 11
1071.5427737315854
 21
1044.1618066332935
  0
LINE
  8
_0-0_
  6
CONTINUOUS
 62
    7
 10
1084.9968809315874
 20
1018.9178596332945
 11
1083.7916513315881
 21
1044.1618066332935
  0
LINE
  8
_0-0_
  6
CONTINUOUS
 62
    7
 10
1297.1965679315867
 20
1018.9178596332945
 11
1298.0390777315874
 21
1044.1618066332935
  0
LINE
  8
_0-0_
  6
CONTINUOUS
 62
    7
 10
1284.4899989315868
 20
1020.6120682332944
 11
1285.7901983315874
 21
1044.1618066332935
  0
LINE
  8
_0-0_
  6
CONTINUOUS
 62
    1
 10
1286.2860745708836
 20
982.81707067611342
 11
1293.4816885254199
 21
982.56579429985641
  0
LINE
  8
_0-0_
  6
CONTINUOUS
 62
    1
 10
1293.4816885254199
 20
982.56579429985823
 11
1295.9219150462645
 21
1052.4447390184118
  0
LINE
  8
_0-0_
  6
CONTINUOUS
 62
    1
 10
1286.2860745708836
 20
982.81707067611342
 11
1288.7263010917263
 21
1052.6960153946707
  0
LINE
  8
_0-0_
  6
CONTINUOUS
 62
    1
 10
1280.6940544869353
 20
1054.7776048065957
 11
1280.6312353928729
 21
1052.9787013179616
  0
LINE
  8
_0-0_
  6
CONTINUOUS
 62
    1
 10
1304.0797998391822
 20
1053.9609565837577
 11
1304.016980745118
 21
1052.1620530951218
  0
LINE
  8
_0-0_
  6
CONTINUOUS
 62
    1
 10
1304.0797998391822
 20
1053.9609565837577
 11
1280.6940544869353
 21
1054.7776048065957
  0
LINE
  8
_0-0_
  6
CONTINUOUS
 62
    1
 10
1304.016980745118
 20
1052.1620530951218
 11
1280.6312353928729
 21
1052.9787013179616
  0
LINE
  8
_0-0_
  6
CONTINUOUS
 62
    1
 10
1076.0740287853564
 20
983.2517940345856
 11
1083.2696427398928
 21
983.5030704108417
  0
LINE
  8
_0-0_
  6
CONTINUOUS
 62
    1
 10
1083.2696427398928
 20
983.50307041084352
 11
1080.82941621905
 21
1053.3820151293999
  0
LINE
  8
_0-0_
  6
CONTINUOUS
 62
    1
 10
1076.0740287853564
 20
983.2517940345856
 11
1073.6338022645118
 21
1053.130738753141
  0
LINE
  8
_0-0_
  6
CONTINUOUS
 62
    1
 10
1065.4759174715932
 20
1054.646956318486
 11
1065.5387365656584
 21
1052.8480528298501
  0
LINE
  8
_0-0_
  6
CONTINUOUS
 62
    1
 10
1088.8616628238392
 20
1055.463604541324
 11
1088.9244819179044
 21
1053.6647010526899
  0
LINE
  8
_0-0_
  6
CONTINUOUS
 62
    1
 10
1088.8616628238392
 20
1055.463604541324
 11
1065.4759174715932
 21
1054.646956318486
  0
LINE
  8
_0-0_
  6
CONTINUOUS
 62
    1
 10
1088.9244819179044
 20
1053.6647010526899
 11
1065.5387365656584
 21
1052.8480528298501
  0
LINE
  8
_0-0_
  6
CONTINUOUS
 62
    7
 10
1266.6644981315872
 20
1060.0325866332946
 11
1234.4019819240689
 21
1060.3618066332942
  0
LINE
  8
_0-0_
  6
CONTINUOUS
 62
    7
 10
1084.8837185315874
 20
1060.0325866332946
 11
1117.1462347391039
 21
1060.3618066332942
  0
LINE
  8
_0-0_
  6
CONTINUOUS
 62
    7
 10
1029.5241083315864
 20
444.75363023131604
 11
1024.1241083315867
 21
450.15363023131567
  0
LINE
  8
_0-0_
  6
CONTINUOUS
 62
    7
 10
1029.5241083315864
 20
444.75363023131604
 11
1037.6241083315867
 21
444.75363023131604
  0
LINE
  8
_0-0_
  6
CONTINUOUS
 62
    7
 10
1313.924108331586
 20
444.75363023131604
 11
1322.0241083315864
 21
444.75363023131604
  0
LINE
  8
_0-0_
  6
CONTINUOUS
 62
    7
 10
1037.6241083315867
 20
444.75363023131604
 11
1043.0241083315864
 21
450.15363023131567
  0
LINE
  8
_0-0_
  6
CONTINUOUS
 62
    7
 10
1313.924108331586
 20
444.75363023131604
 11
1308.5241083315864
 21
450.15363023131567
  0
LINE
  8
_0-0_
  6
CONTINUOUS
 62
    7
 10
1322.0241083315864
 20
444.75363023131604
 11
1327.424108331586
 21
450.15363023131567
  0
LINE
  8
_0-0_
  6
CONTINUOUS
 62
    7
 10
1004.7741083315865
 20
451.95363023131586
 11
1004.7741083315865
 21
450.15363023131567
  0
LINE
  8
_0-0_
  6
CONTINUOUS
 62
    7
 10
1346.7741083315864
 20
451.95363023131586
 11
1346.7741083315864
 21
450.15363023131567
  0
LINE
  8
_0-0_
  6
CONTINUOUS
 62
    7
 10
1018.7241083315872
 20
455.55363023131531
 11
1015.1241083315869
 21
451.95363023131586
  0
LINE
  8
_0-0_
  6
CONTINUOUS
 62
    7
 10
1332.8241083315875
 20
455.55363023131531
 11
1336.424108331586
 21
451.95363023131586
  0
LINE
  8
_0-0_
  6
CONTINUOUS
 62
    7
 10
1099.7241083315871
 20
468.15363023131567
 11
1251.8241083315875
 21
468.15363023131567
  0
LINE
  8
_0-0_
  6
CONTINUOUS
 62
    7
 10
1099.7241083315871
 20
468.15363023131567
 11
1099.7241083315871
 21
466.35363023131549
  0
LINE
  8
_0-0_
  6
CONTINUOUS
 62
    7
 10
1251.8241083315875
 20
468.15363023131567
 11
1251.8241083315875
 21
466.35363023131549
  0
LINE
  8
_0-0_
  6
CONTINUOUS
 62
    7
 10
1251.8241083315875
 20
466.35363023131549
 11
1099.7241083315871
 21
466.35363023131549
  0
LINE
  8
_0-0_
  6
CONTINUOUS
 62
    7
 10
1244.8812511887295
 20
466.35363023131549
 11
1332.8241083315875
 21
455.55363023131531
  0
LINE
  8
_0-0_
  6
CONTINUOUS
 62
    7
 10
1106.6669654744451
 20
466.35363023131549
 11
1018.7241083315872
 21
455.55363023131531
  0
LINE
  8
_0-0_
  6
CONTINUOUS
 62
    7
 10
1117.7241083315871
 20
469.95363023131586
 11
1117.7241083315871
 21
468.15363023131567
  0
LINE
  8
_0-0_
  6
CONTINUOUS
 62
    7
 10
1117.7241083315871
 20
469.95363023131586
 11
1233.8241083315875
 21
469.95363023131586
  0
LINE
  8
_0-0_
  6
CONTINUOUS
 62
    7
 10
1233.8241083315875
 20
469.95363023131586
 11
1233.8241083315875
 21
468.15363023131567
  0
LINE
  8
_0-0_
  6
CONTINUOUS
 62
    7
 10
1222.539480135946
 20
783.15363023131556
 11
1217.1405082600111
 21
786.23784260054481
  0
LINE
  8
_0-0_
  6
CONTINUOUS
 62
    7
 10
1217.1405082600111
 20
786.23784260054481
 11
1210.4846392546594
 21
788.90019020268539
  0
LINE
  8
_0-0_
  6
CONTINUOUS
 62
    7
 10
1210.4846392546594
 20
788.90019020268539
 11
1202.7741083315864
 21
791.05977895305944
  0
LINE
  8
_0-0_
  6
CONTINUOUS
 62
    7
 10
1202.7741083315864
 20
791.05977895305944
 11
1194.2431960711724
 21
792.65099084029112
  0
LINE
  8
_0-0_
  6
CONTINUOUS
 62
    7
 10
1194.2431960711724
 20
792.65099084029112
 11
1185.1511099256006
 21
793.62547769637922
  0
LINE
  8
_0-0_
  6
CONTINUOUS
 62
    7
 10
1185.1511099256006
 20
793.62547769637922
 11
1175.7741083315864
 21
793.95363023131551
  0
LINE
  8
_0-0_
  6
CONTINUOUS
 62
    7
 10
1175.7741083315864
 20
793.95363023131551
 11
1166.3971067375721
 21
793.62547769637922
  0
LINE
  8
_0-0_
  6
CONTINUOUS
 62
    7
 10
1166.3971067375721
 20
793.62547769637922
 11
1157.3050205920001
 21
792.65099084029112
  0
LINE
  8
_0-0_
  6
CONTINUOUS
 62
    7
 10
1157.3050205920001
 20
792.65099084029112
 11
1148.7741083315864
 21
791.05977895305932
  0
LINE
  8
_0-0_
  6
CONTINUOUS
 62
    7
 10
1148.7741083315864
 20
791.05977895305932
 11
1141.0635774085131
 21
788.90019020268539
  0
LINE
  8
_0-0_
  6
CONTINUOUS
 62
    7
 10
1141.0635774085131
 20
788.90019020268539
 11
1134.4077084031615
 21
786.2378426005447
  0
LINE
  8
_0-0_
  6
CONTINUOUS
 62
    7
 10
1134.4077084031615
 20
786.2378426005447
 11
1129.0087365272268
 21
783.15363023131556
  0
ARC
  8
_0-0_
  6
CONTINUOUS
 62
    7
 10
1206.3447128967305
 20
763.49645243493387
 40
25.469101375018997
 50
20.350471186848779
 51
50.516247074907042
  0
ARC
  8
_0-0_
  6
CONTINUOUS
 62
    7
 10
1145.2035037664459
 20
763.49645243493387
 40
25.46910137501926
 50
129.48375292509368
 51
159.64952881315153
  0
LINE
  8
_0-0_
  6
CONTINUOUS
 62
    7
 10
1121.3241083315875
 20
772.35363023131549
 11
1121.3241083315875
 21
469.95363023131586
  0
LINE
  8
_0-0_
  6
CONTINUOUS
 62
    7
 10
1230.2241083315871
 20
772.35363023131549
 11
1230.2241083315871
 21
469.95363023131586
  0
ARC
  8
_0-0_
  6
CONTINUOUS
 62
    7
 10
1139.7741083315864
 20
538.01648876633999
 40
7.2000000000000002
 50
90
 51
180
  0
LINE
  8
_0-0_
  6
CONTINUOUS
 62
    7
 10
1143.3741083315867
 20
545.21648876633981
 11
1139.7741083315864
 21
545.21648876633981
  0
ARC
  8
_0-0_
  6
CONTINUOUS
 62
    7
 10
1143.3741083315867
 20
538.01648876633999
 40
7.2000000000000002
 50
0
 51
90
  0
LINE
  8
_0-0_
  6
CONTINUOUS
 62
    7
 10
1132.5741083315875
 20
489.41648876633963
 11
1132.5741083315875
 21
538.01648876633999
  0
ARC
  8
_0-0_
  6
CONTINUOUS
 62
    7
 10
1139.7741083315864
 20
489.41648876633963
 40
7.2000000000000002
 50
180
 51
270
  0
LINE
  8
_0-0_
  6
CONTINUOUS
 62
    7
 10
1143.3741083315867
 20
482.21648876633981
 11
1139.7741083315864
 21
482.21648876633981
  0
LINE
  8
_0-0_
  6
CONTINUOUS
 62
    7
 10
1150.5741083315875
 20
489.41648876633963
 11
1150.5741083315875
 21
538.01648876633999
  0
ARC
  8
_0-0_
  6
CONTINUOUS
 62
    7
 10
1143.3741083315867
 20
489.41648876633963
 40
7.2000000000000002
 50
270
 51
0
  0
ARC
  8
_0-0_
  6
CONTINUOUS
 62
    7
 10
1172.174108331586
 20
489.41648876633963
 40
7.2000000000000002
 50
180
 51
270
  0
LINE
  8
_0-0_
  6
CONTINUOUS
 62
    7
 10
1179.3741083315867
 20
482.21648876633981
 11
1172.174108331586
 21
482.21648876633981
  0
ARC
  8
_0-0_
  6
CONTINUOUS
 62
    7
 10
1179.3741083315867
 20
489.41648876633963
 40
7.2000000000000002
 50
270
 51
0
  0
LINE
  8
_0-0_
  6
CONTINUOUS
 62
    7
 10
1186.5741083315875
 20
538.01648876633999
 11
1186.5741083315875
 21
489.41648876633963
  0
ARC
  8
_0-0_
  6
CONTINUOUS
 62
    7
 10
1179.3741083315867
 20
538.01648876633999
 40
7.2000000000000002
 50
0
 51
90
  0
LINE
  8
_0-0_
  6
CONTINUOUS
 62
    7
 10
1172.174108331586
 20
545.21648876633981
 11
1179.3741083315867
 21
545.21648876633981
  0
LINE
  8
_0-0_
  6
CONTINUOUS
 62
    7
 10
1164.9741083315871
 20
538.01648876633999
 11
1164.9741083315871
 21
489.41648876633963
  0
ARC
  8
_0-0_
  6
CONTINUOUS
 62
    7
 10
1172.174108331586
 20
538.01648876633999
 40
7.2000000000000002
 50
90
 51
180
  0
ARC
  8
_0-0_
  6
CONTINUOUS
 62
    7
 10
1208.174108331586
 20
538.01648876633999
 40
7.2000000000000002
 50
90
 51
180
  0
LINE
  8
_0-0_
  6
CONTINUOUS
 62
    7
 10
1211.7741083315864
 20
545.21648876633981
 11
1208.174108331586
 21
545.21648876633981
  0
ARC
  8
_0-0_
  6
CONTINUOUS
 62
    7
 10
1211.7741083315864
 20
538.01648876633999
 40
7.2000000000000002
 50
0
 51
90
  0
LINE
  8
_0-0_
  6
CONTINUOUS
 62
    7
 10
1200.9741083315871
 20
489.41648876633963
 11
1200.9741083315871
 21
538.01648876633999
  0
ARC
  8
_0-0_
  6
CONTINUOUS
 62
    7
 10
1208.174108331586
 20
489.41648876633963
 40
7.2000000000000002
 50
180
 51
270
  0
LINE
  8
_0-0_
  6
CONTINUOUS
 62
    7
 10
1211.7741083315864
 20
482.21648876633981
 11
1208.174108331586
 21
482.21648876633981
  0
LINE
  8
_0-0_
  6
CONTINUOUS
 62
    7
 10
1218.9741083315871
 20
489.41648876633963
 11
1218.9741083315871
 21
538.01648876633999
  0
ARC
  8
_0-0_
  6
CONTINUOUS
 62
    7
 10
1211.7741083315864
 20
489.41648876633963
 40
7.2000000000000002
 50
270
 51
0
  0
ARC
  8
_0-0_
  6
CONTINUOUS
 62
    7
 10
1139.7741083315864
 20
628.01648876633999
 40
7.2000000000000002
 50
90
 51
180
  0
LINE
  8
_0-0_
  6
CONTINUOUS
 62
    7
 10
1132.5741083315875
 20
579.41648876633963
 11
1132.5741083315875
 21
628.01648876633999
  0
ARC
  8
_0-0_
  6
CONTINUOUS
 62
    7
 10
1139.7741083315864
 20
579.41648876633963
 40
7.2000000000000002
 50
180
 51
270
  0
LINE
  8
_0-0_
  6
CONTINUOUS
 62
    7
 10
1143.3741083315867
 20
572.21648876633981
 11
1139.7741083315864
 21
572.21648876633981
  0
ARC
  8
_0-0_
  6
CONTINUOUS
 62
    7
 10
1143.3741083315867
 20
579.41648876633963
 40
7.2000000000000002
 50
270
 51
0
  0
LINE
  8
_0-0_
  6
CONTINUOUS
 62
    7
 10
1150.5741083315875
 20
628.01648876633999
 11
1150.5741083315875
 21
579.41648876633963
  0
LINE
  8
_0-0_
  6
CONTINUOUS
 62
    7
 10
1143.3741083315867
 20
635.21648876633981
 11
1139.7741083315864
 21
635.21648876633981
  0
ARC
  8
_0-0_
  6
CONTINUOUS
 62
    7
 10
1143.3741083315867
 20
628.01648876633999
 40
7.2000000000000002
 50
0
 51
90.000000000000028
  0
ARC
  8
_0-0_
  6
CONTINUOUS
 62
    7
 10
1172.174108331586
 20
628.01648876633999
 40
7.2000000000000002
 50
90
 51
180
  0
LINE
  8
_0-0_
  6
CONTINUOUS
 62
    7
 10
1179.3741083315867
 20
635.21648876633981
 11
1172.174108331586
 21
635.21648876633981
  0
ARC
  8
_0-0_
  6
CONTINUOUS
 62
    7
 10
1179.3741083315867
 20
628.01648876633999
 40
7.2000000000000002
 50
0
 51
90
  0
LINE
  8
_0-0_
  6
CONTINUOUS
 62
    7
 10
1164.9741083315871
 20
579.41648876633963
 11
1164.9741083315871
 21
628.01648876633999
  0
ARC
  8
_0-0_
  6
CONTINUOUS
 62
    7
 10
1172.174108331586
 20
579.41648876633963
 40
7.2000000000000002
 50
180
 51
270
  0
LINE
  8
_0-0_
  6
CONTINUOUS
 62
    7
 10
1179.3741083315867
 20
572.21648876633981
 11
1172.174108331586
 21
572.21648876633981
  0
LINE
  8
_0-0_
  6
CONTINUOUS
 62
    7
 10
1186.5741083315875
 20
579.41648876633963
 11
1186.5741083315875
 21
628.01648876633999
  0
ARC
  8
_0-0_
  6
CONTINUOUS
 62
    7
 10
1179.3741083315867
 20
579.41648876633963
 40
7.2000000000000002
 50
270
 51
0
  0
ARC
  8
_0-0_
  6
CONTINUOUS
 62
    7
 10
1208.174108331586
 20
579.41648876633963
 40
7.2000000000000002
 50
180
 51
270
  0
LINE
  8
_0-0_
  6
CONTINUOUS
 62
    7
 10
1211.7741083315864
 20
572.21648876633981
 11
1208.174108331586
 21
572.21648876633981
  0
ARC
  8
_0-0_
  6
CONTINUOUS
 62
    7
 10
1211.7741083315864
 20
579.41648876633963
 40
7.2000000000000002
 50
270
 51
0
  0
LINE
  8
_0-0_
  6
CONTINUOUS
 62
    7
 10
1218.9741083315871
 20
628.01648876633999
 11
1218.9741083315871
 21
579.41648876633963
  0
ARC
  8
_0-0_
  6
CONTINUOUS
 62
    7
 10
1211.7741083315864
 20
628.01648876633999
 40
7.2000000000000002
 50
0
 51
90.000000000000028
  0
LINE
  8
_0-0_
  6
CONTINUOUS
 62
    7
 10
1208.174108331586
 20
635.21648876633981
 11
1211.7741083315864
 21
635.21648876633981
  0
LINE
  8
_0-0_
  6
CONTINUOUS
 62
    7
 10
1200.9741083315871
 20
628.01648876633999
 11
1200.9741083315871
 21
579.41648876633963
  0
ARC
  8
_0-0_
  6
CONTINUOUS
 62
    7
 10
1208.174108331586
 20
628.01648876633999
 40
7.2000000000000002
 50
90
 51
180
  0
LINE
  8
_0-0_
  6
CONTINUOUS
 62
    1
 10
1029.9741083315871
 20
382.03209120039764
 11
1037.1741083315869
 21
382.03209120039764
  0
LINE
  8
_0-0_
  6
CONTINUOUS
 62
    1
 10
1037.1741083315869
 20
382.03209120039946
 11
1037.1741083315869
 21
451.95363023131586
  0
LINE
  8
_0-0_
  6
CONTINUOUS
 62
    1
 10
1029.9741083315871
 20
382.03209120039764
 11
1029.9741083315871
 21
451.95363023131586
  0
LINE
  8
_0-0_
  6
CONTINUOUS
 62
    1
 10
1021.8741083315869
 20
453.75363023131604
 11
1021.8741083315869
 21
451.95363023131586
  0
LINE
  8
_0-0_
  6
CONTINUOUS
 62
    1
 10
1045.2741083315864
 20
453.75363023131604
 11
1045.2741083315864
 21
451.95363023131586
  0
LINE
  8
_0-0_
  6
CONTINUOUS
 62
    1
 10
1045.2741083315864
 20
453.75363023131604
 11
1021.8741083315869
 21
453.75363023131604
  0
LINE
  8
_0-0_
  6
CONTINUOUS
 62
    1
 10
1045.2741083315864
 20
451.95363023131586
 11
1021.8741083315869
 21
451.95363023131586
  0
LINE
  8
_0-0_
  6
CONTINUOUS
 62
    1
 10
1314.3741083315867
 20
382.03209120039764
 11
1321.5741083315875
 21
382.03209120039764
  0
LINE
  8
_0-0_
  6
CONTINUOUS
 62
    1
 10
1321.5741083315875
 20
382.03209120039946
 11
1321.5741083315875
 21
451.95363023131586
  0
LINE
  8
_0-0_
  6
CONTINUOUS
 62
    1
 10
1314.3741083315867
 20
382.03209120039764
 11
1314.3741083315867
 21
451.95363023131586
  0
LINE
  8
_0-0_
  6
CONTINUOUS
 62
    1
 10
1306.2741083315864
 20
453.75363023131604
 11
1306.2741083315864
 21
451.95363023131586
  0
LINE
  8
_0-0_
  6
CONTINUOUS
 62
    1
 10
1329.674108331586
 20
453.75363023131604
 11
1329.674108331586
 21
451.95363023131586
  0
LINE
  8
_0-0_
  6
CONTINUOUS
 62
    1
 10
1329.674108331586
 20
453.75363023131604
 11
1306.2741083315864
 21
453.75363023131604
  0
LINE
  8
_0-0_
  6
CONTINUOUS
 62
    1
 10
1329.674108331586
 20
451.95363023131586
 11
1306.2741083315864
 21
451.95363023131586
  0
LINE
  8
_0-0_
  6
CONTINUOUS
 62
    7
 10
831.76580077018446
 20
439.35363023131549
 11
1522.2318974469304
 21
439.35363023131549
  0
LINE
  8
_0-0_
  6
CONTINUOUS
 62
    7
 10
1384.761190013854
 20
1048.6690759286439
 11
1438.9082739304117
 21
1142.4545763538194
  0
POINT
  8
_0-0_
 62
    7
 10
1384.761190013854
 20
1048.6690759286439
  0
LINE
  8
_0-0_
  6
CONTINUOUS
 62
    7
 10
1376.9515144489665
 20
458.25760322309134
 11
1434.2603211760102
 21
557.51936819547745
  0
POINT
  8
_0-0_
 62
    7
 10
1376.9515144489665
 20
458.25760322309134
  0
TEXT
  8
_0-0_
 62
    7
 10
1441.5114991187088
 20
539.47822909792922
 40
30
 41
1
 50
0
  1
防水層
  0
TEXT
  8
_0-0_
 62
    7
 10
1445.1560143823222
 20
1128.3277666905042
 40
30
 41
1
 50
0
  1
防水層
  0
ARC
  8
_0-0_
  6
DASHED2
 62
    5
 10
1317.9741083315871
 20
1040.7854008332938
 40
13.800000000000001
 50
27.520011694723241
 51
87.818359517638712
  0
LINE
  8
_0-0_
  6
DASHED2
 62
    5
 10
1330.212631488967
 20
1047.1618066332937
 11
1380.212631488967
 21
1047.1618066332937
  0
ARC
  8
_0-0_
  6
DASHED2
 62
    5
 10
1033.5741083315875
 20
1040.7854008332938
 40
13.800000000000001
 50
92.181640482361288
 51
152.47998830527675
  0
LINE
  8
_0-0_
  6
DASHED2
 62
    5
 10
1021.3355851742077
 20
1047.1618066332937
 11
971.33558517420772
 21
1047.1618066332937
  0
LINE
  8
_0-0_
  6
DASHED2
 62
    5
 10
1033.0487753223392
 20
1054.5753981544685
 11
1088.8145693612009
 21
1056.6998084580555
  0
LINE
  8
_0-0_
  6
DASHED2
 62
    5
 10
1280.7411479495736
 20
1056.0138087233265
 11
1318.4994413408353
 21
1054.5753981544685
  0
LINE
  8
_0-0_
  6
DASHED2
 62
    5
 10
1004.7741083315865
 20
454.95363023131586
 11
1013.8814676444678
 21
454.95363023131586
  0
LINE
  8
_0-0_
  6
DASHED2
 62
    5
 10
1017.3331909119585
 20
458.40535349880543
 11
1013.8814676444678
 21
454.95363023131586
  0
LINE
  8
_0-0_
  6
DASHED2
 62
    5
 10
1004.7741083315865
 20
454.95363023131586
 11
1002.9741083315863
 21
453.1536302313159
  0
LINE
  8
_0-0_
  6
DASHED2
 62
    5
 10
1002.9741083315863
 20
453.1536302313159
 11
952.97410833158631
 21
453.1536302313159
  0
LINE
  8
_0-0_
  6
DASHED2
 62
    5
 10
1337.666749018706
 20
454.95363023131586
 11
1346.7741083315864
 21
454.95363023131586
  0
LINE
  8
_0-0_
  6
DASHED2
 62
    5
 10
1346.7741083315864
 20
454.95363023131586
 11
1348.5741083315866
 21
453.15363023131567
  0
LINE
  8
_0-0_
  6
DASHED2
 62
    5
 10
1348.5741083315866
 20
453.15363023131567
 11
1398.5741083315866
 21
453.15363023131567
  0
LINE
  8
_0-0_
  6
DASHED2
 62
    5
 10
1046.8874662303328
 20
462.03482590632507
 11
1017.3331909119585
 21
458.40535349880543
  0
LINE
  8
_0-0_
  6
DASHED2
 62
    5
 10
1334.2150257512171
 20
458.40535349880543
 11
1337.666749018706
 21
454.95363023131586
  0
LINE
  8
_0-0_
  6
DASHED2
 62
    5
 10
1304.6607504328426
 20
462.03482590632507
 11
1334.2150257512171
 21
458.40535349880543
  0
LINE
  8
_0-0_
  6
CONTINUOUS
 62
    4
 10
831.76580077018446
 20
466.35363023131549
 11
1106.6669654744451
 21
466.35363023131549
  0
LINE
  8
_0-0_
  6
CONTINUOUS
 62
    4
 10
1244.8812511887295
 20
466.35363023131549
 11
1522.2318974469304
 21
466.35363023131549
  0
LINE
  8
_0-0_
  6
CONTINUOUS
 62
    4
 10
831.76580077018446
 20
1060.3618066332942
 11
1117.1462347391039
 21
1060.3618066332942
  0
LINE
  8
_0-0_
  6
CONTINUOUS
 62
    4
 10
1234.2741083315873
 20
1060.3618066332942
 11
1522.2318974469304
 21
1060.3618066332942
  0
LINE
  8
_0-0_
  6
CONTINUOUS
 62
    7
 10
1519.9144441332041
 20
853.36180663329333
 11
1522.2318974469313
 21
855.67925994702068
  0
LINE
  8
_0-0_
  6
CONTINUOUS
 62
    7
 10
1507.1865220718478
 20
853.36180663329446
 11
1522.2318974469304
 21
868.40718200837728
  0
LINE
  8
_0-0_
  6
CONTINUOUS
 62
    7
 10
1494.4586000104896
 20
853.36180663329492
 11
1522.2318974469304
 21
881.13510406973501
  0
LINE
  8
_0-0_
  6
CONTINUOUS
 62
    7
 10
1194.6453247873937
 20
853.36180663329515
 11
1374.6453247873947
 21
1033.3618066332956
  0
LINE
  8
_0-0_
  6
CONTINUOUS
 62
    7
 10
1181.9174027260374
 20
853.3618066332956
 11
1361.9174027260365
 21
1033.3618066332951
  0
LINE
  8
_0-0_
  6
CONTINUOUS
 62
    7
 10
1169.1894806646756
 20
853.36180663329355
 11
1349.1894806646756
 21
1033.3618066332933
  0
LINE
  8
_0-0_
  6
CONTINUOUS
 62
    7
 10
869.37620544158074
 20
853.36180663329401
 11
1049.3762054415797
 21
1033.3618066332938
  0
LINE
  8
_0-0_
  6
CONTINUOUS
 62
    7
 10
856.64828338022346
 20
853.36180663329355
 11
1036.6482833802224
 21
1033.3618066332931
  0
LINE
  8
_0-0_
  6
CONTINUOUS
 62
    7
 10
843.92036131886528
 20
853.3618066332931
 11
1023.9203613188653
 21
1033.3618066332936
  0
LINE
  8
_0-0_
  6
CONTINUOUS
 62
    7
 10
1241.2000214490886
 20
1054.5179606355712
 11
1318.3852391315882
 21
1051.5775726332945
  0
LINE
  8
_0-0_
  6
CONTINUOUS
 62
    7
 10
1033.1629775315864
 20
1051.5775726332945
 11
1110.348195214086
 21
1054.5179606355714
  0
LINE
  8
_0-0_
  6
CONTINUOUS
 62
    7
 10
831.76580077018446
 20
439.35363023131549
 11
1522.2318974469304
 21
439.35363023131549
  0
LINE
  8
_0-0_
  6
CONTINUOUS
 62
    7
 10
1519.9144441332041
 20
259.35363023131458
 11
1522.2318974469313
 21
261.67108354504194
  0
LINE
  8
_0-0_
  6
CONTINUOUS
 62
    7
 10
1494.4586000104896
 20
259.35363023131617
 11
1522.2318974469304
 21
287.12692766775626
  0
LINE
  8
_0-0_
  6
CONTINUOUS
 62
    7
 10
1194.6453247873937
 20
259.3536302313164
 11
1374.6453247873947
 21
439.35363023131686
  0
LINE
  8
_0-0_
  6
CONTINUOUS
 62
    7
 10
1181.9174027260374
 20
259.35363023131686
 11
1361.9174027260365
 21
439.3536302313164
  0
LINE
  8
_0-0_
  6
CONTINUOUS
 62
    7
 10
1169.1894806646756
 20
259.35363023131481
 11
1349.1894806646756
 21
439.35363023131458
  0
LINE
  8
_0-0_
  6
CONTINUOUS
 62
    7
 10
856.64828338022346
 20
259.35363023131481
 11
1036.6482833802224
 21
439.35363023131436
  0
LINE
  8
_0-0_
  6
CONTINUOUS
 62
    7
 10
843.92036131886528
 20
259.35363023131436
 11
1023.9203613188653
 21
439.35363023131481
  0
LINE
  8
_0-0_
  6
CONTINUOUS
 62
    3
 10
1125.7741083315864
 20
1044.1618066332935
 11
1125.7741083315864
 21
1033.3618066332942
  0
LINE
  8
_0-0_
  6
CONTINUOUS
 62
    3
 10
1225.7741083315864
 20
1044.1618066332935
 11
1225.7741083315864
 21
1033.3618066332942
  0
LINE
  8
_0-0_
  6
CONTINUOUS
 62
    7
 10
1125.7741083315864
 20
1044.1618066332935
 11
1023.315458331586
 21
1044.1618066332935
  0
LINE
  8
_0-0_
  6
CONTINUOUS
 62
    3
 10
831.76580077018446
 20
1044.1618066332935
 11
1125.7741083315864
 21
1044.1618066332935
  0
LINE
  8
_0-0_
  6
CONTINUOUS
 62
    3
 10
1225.7741083315864
 20
1044.1618066332935
 11
1522.2318974469304
 21
1044.1618066332935
  0
LINE
  8
_0-0_
  6
CONTINUOUS
 62
    3
 10
831.76580077018446
 20
450.15363023131567
 11
1125.7741083315873
 21
450.15363023131567
  0
LINE
  8
_0-0_
  6
CONTINUOUS
 62
    3
 10
1225.7741083315873
 20
450.15363023131567
 11
1522.2318974469304
 21
450.15363023131567
  0
LINE
  8
_0-0_
  6
CONTINUOUS
 62
    3
 10
1125.7741083315873
 20
450.15363023131567
 11
1125.7741083315873
 21
439.35363023131549
  0
LINE
  8
_0-0_
  6
CONTINUOUS
 62
    3
 10
1225.7741083315873
 20
450.15363023131567
 11
1225.7741083315873
 21
439.35363023131549
  0
LINE
  8
_0-0_
  6
CONTINUOUS
 62
    7
 10
1004.7741083315865
 20
451.95363023131586
 11
1346.7741083315864
 21
451.95363023131586
  0
LINE
  8
_0-0_
  6
CONTINUOUS
 62
    7
 10
672.13606690525205
 20
1633.3565543671129
 11
1706.8525777203668
 21
1633.3565543671129
  0
LINE
  8
_0-0_
  6
CONTINUOUS
 62
    7
 10
672.13606690525205
 20
1553.3565543671129
 11
1706.8525777203668
 21
1553.3565543671129
  0
LINE
  8
_0-0_
  6
CONTINUOUS
 62
    7
 10
672.13606690525205
 20
1473.3565543671129
 11
1706.8525777203668
 21
1473.3565543671129
  0
LINE
  8
_0-0_
  6
CONTINUOUS
 62
    7
 10
1189.4943223128084
 20
1633.3565543671129
 11
1189.4943223128084
 21
1473.3565543671129
  0
TEXT
  8
_0-0_
 62
    7
 10
1213.4943223128084
 20
1577.3565543671129
 40
20
 41
1
 50
0
  1
構造：ＲＣ造
  0
TEXT
  8
_0-0_
 62
    7
 10
1213.4943223128084
 20
1497.3565543671129
 40
20
 41
1
 50
0
  1
下地：コンクリートスラブ
  0
TEXT
  8
_0-0_
 62
    7
 10
696.13606690525194
 20
1577.3565543671129
 40
20
 41
1
 50
0
  1
図面番号：dakki
  0
TEXT
  8
_0-0_
 62
    7
 10
696.13606690525205
 20
1497.3565543671129
 40
20
 41
1
 50
0
  1
施工部位：脱気装置
  0
ENDSEC
  0
EOF
