  0
SECTION
  2
HEADER
  9
$ACADVER
  1
AC1009
  9
$INSBASE
 10
0
 20
0
 30
0
  9
$EXTMIN
 10
0
 20
0
  9
$EXTMAX
 10
2378
 20
1682
  9
$LIMMIN
 10
0
 20
0
  9
$LIMMAX
 10
2378
 20
1682
  9
$LTSCALE
 40
1
  0
ENDSEC
  0
SECTION
  2
TABLES
  0
TABLE
  2
LTYPE
 70
     9
  0
LTYPE
  2
CONTINUOUS
 70
    64
  3
実線
 72
    65
 73
     0
 40
0.0
  0
LTYPE
  2
DASHED1
 70
    64
  3
--  --  --  --  --  --  --  --  
 72
    65
 73
     2
 40
2.5
 49
1.25
 49
-1.25
  0
LTYPE
  2
DASHED2
 70
    64
  3
----    ----    ----    ----    
 72
    65
 73
     2
 40
5.0
 49
2.5
 49
-2.5
  0
LTYPE
  2
DASHED3
 70
    64
  3
------  ------  ------  ------  
 72
    65
 73
     2
 40
5.0
 49
3.75
 49
-1.25
  0
LTYPE
  2
CENTER1
 70
    64
  3
----- - ----- - ----- - ----- - 
 72
    65
 73
     4
 40
10.0
 49
6.25
 49
-1.25
 49
1.25
 49
-1.25
  0
LTYPE
  2
CENTER2
 70
    64
  3
----------  --  ----------  --  
 72
    65
 73
     4
 40
20.0
 49
12.5
 49
-2.5
 49
2.5
 49
-2.5
  0
LTYPE
  2
PHANTOM1
 70
    64
  3
--- - - --- - - --- - - --- - - 
 72
    65
 73
     6
 40
10.0
 49
3.25
 49
-1.25
 49
1.25
 49
-1.25
 49
1.25
 49
-1.25
  0
LTYPE
  2
PHANTOM2
 70
    64
  3
--------  -  -  --------  -  -  
 72
    65
 73
     6
 40
20.0
 49
10.0
 49
-2.5
 49
1.25
 49
-2.5
 49
1.25
 49
-2.5
  0
LTYPE
  2
DOT
 70
    64
  3
-   -   -   -   -   -   -   -   
 72
    65
 73
     2
 40
2.5
 49
0.625
 49
-1.875
  0
LTYPE
  2
DUMMY
 70
    64
  3
ダミー
 72
    65
 73
     0
 40
0.0
  0
LTYPE
  2
RAND1
 70
    64
  3
ランダム線1
 72
    65
 73
     4
 40
10.0
 49
1.0
 49
-2.0
 49
3.0
 49
-4.0
  0
LTYPE
  2
RAND2
 70
    64
  3
ランダム線2
 72
    65
 73
     4
 40
14.0
 49
2.0
 49
-3.0
 49
4.0
 49
-5.0
  0
LTYPE
  2
RAND3
 70
    64
  3
ランダム線3
 72
    65
 73
     4
 40
18.0
 49
3.0
 49
-4.0
 49
5.0
 49
-6.0
  0
LTYPE
  2
RAND4
 70
    64
  3
ランダム線4
 72
    65
 73
     4
 40
22.0
 49
4.0
 49
-5.0
 49
6.0
 49
-7.0
  0
LTYPE
  2
RAND5
 70
    64
  3
ランダム線5
 72
    65
 73
     4
 40
26.0
 49
5.0
 49
-6.0
 49
7.0
 49
-8.0
  0
LTYPE
  2
LONG1
 70
    64
  3
----------  --  ----------  --  
 72
    65
 73
     4
 40
40.0
 49
32.5
 49
-2.5
 49
2.5
 49
-2.5
  0
LTYPE
  2
LONG2
 70
    64
  3
--------  -  -  --------  -  -  
 72
    65
 73
     6
 40
40.0
 49
30.0
 49
-2.5
 49
1.25
 49
-2.5
 49
1.25
 49
-2.5
  0
LTYPE
  2
LONG3
 70
    64
  3
+++++++++++++++..+++++++++++++++
 72
    65
 73
     2
 40
40.0
 49
37.5
 49
-2.5
  0
LTYPE
  2
LONG4
 70
    64
  3
+++++++++++++++..+++++++++++++++
 72
    65
 73
     2
 40
80.0
 49
75.0
 49
-5.0
  0
LTYPE
  2
LONG5
 70
    64
  3
----------  --  ----------  --  
 72
    65
 73
     4
 40
60.0
 49
37.5
 49
-7.5
 49
7.5
 49
-7.5
  0
LTYPE
  2
dashed
 70
   64
  3
-------   -------------   ------
 72
   65
 73
    2
 40
7.5
 49
6
 49
-1.5
  0
LTYPE
  2
dashed_spaced
 70
   64
  3
----        --------        ----
 72
   65
 73
    2
 40
12
 49
6
 49
-6
  0
LTYPE
  2
long_dashed_dotted
 70
   64
  3
------------- --- --------------
 72
   65
 73
    4
 40
15.25
 49
12
 49
-1.5
 49
0.25
 49
-1.5
  0
LTYPE
  2
long_dashed_double-dotted
 70
   64
  3
----------- --- --- ------------
 72
   65
 73
    6
 40
17
 49
12
 49
-1.5
 49
0.25
 49
-1.5
 49
0.25
 49
-1.5
  0
LTYPE
  2
long_dashed_triplicate-dotted
 70
   64
  3
--------- --- --- --- ----------
 72
   65
 73
    8
 40
18.75
 49
12
 49
-1.5
 49
0.25
 49
-1.5
 49
0.25
 49
-1.5
 49
0.25
 49
-1.5
  0
LTYPE
  2
dotted
 70
   64
  3
   -       -       -       -    
 72
   65
 73
    2
 40
1.75
 49
0.25
 49
-1.5
  0
LTYPE
  2
chain
 70
   64
  3
-------------- -- --------------
 72
   65
 73
    4
 40
18.5
 49
12
 49
-1.5
 49
3.5
 49
-1.5
  0
LTYPE
  2
chain_double_dash
 70
   64
  3
------------ -- -- -------------
 72
   65
 73
    6
 40
23.5
 49
12
 49
-1.5
 49
3.5
 49
-1.5
 49
3.5
 49
-1.5
  0
LTYPE
  2
dashed_dotted
 70
   64
  3
-----------     -     ----------
 72
   65
 73
    4
 40
9.25
 49
6
 49
-1.5
 49
0.25
 49
-1.5
  0
LTYPE
  2
double-dashed_dotted
 70
   64
  3
------   -----------   -   -----
 72
   65
 73
    6
 40
16.75
 49
6
 49
-1.5
 49
6
 49
-1.5
 49
0.25
 49
-1.5
  0
LTYPE
  2
dashed_double-dotted
 70
   64
  3
---------    -    -    ---------
 72
   65
 73
    6
 40
11
 49
6
 49
-1.5
 49
0.25
 49
-1.5
 49
0.25
 49
-1.5
  0
LTYPE
  2
double-dashed_double-dotted
 70
   64
  3
-----   ---------   -   -   ----
 72
   65
 73
    8
 40
18.5
 49
6
 49
-1.5
 49
6
 49
-1.5
 49
0.25
 49
-1.5
 49
0.25
 49
-1.5
  0
LTYPE
  2
dashed_triplicate-dotted
 70
   64
  3
-------    -    -    -    ------
 72
   65
 73
    8
 40
12.75
 49
6
 49
-1.5
 49
0.25
 49
-1.5
 49
0.25
 49
-1.5
 49
0.25
 49
-1.5
  0
LTYPE
  2
double-dashed_triplicate-dotted
 70
   64
  3
-----  ---------  -  -  -  -----
 72
   65
 73
   10
 40
20.25
 49
6
 49
-1.5
 49
6
 49
-1.5
 49
0.25
 49
-1.5
 49
0.25
 49
-1.5
 49
0.25
 49
-1.5
  0
LTYPE
  2
undefined
 70
   64
  3
--------------------------------
 72
   65
 73
    0
 40
0
  0
ENDTAB
  0
TABLE
  2
STYLE
  5
3
100
AcDbSymbolTable
 70
     1
  0
STYLE
  5
10
100
AcDbSymbolTableRecord
100
AcDbTextStyleTableRecord
  2
STANDARD
 70
     0
 40
0.0
 41
1.0
 50
0.0
 71
     0
 42
0.2
  3
txt
  4
bigfont.shx
  0
STYLE
  5
26
100
AcDbSymbolTableRecord
100
AcDbTextStyleTableRecord
  2
TATEGAKI
 70
    68
 40
0.0
 41
1.0
 50
0.0
 71
     0
 42
1.0
  3
txt
  4
bigfont.shx
  0
ENDTAB
  0
TABLE
  2
LAYER
 70
    2
  0
LAYER
  2
_0-0_
 70
   64
 62
    7
  6
CONTINUOUS
  0
LAYER
  2
ADD_LINE
 70
   64
 62
    7
  6
CONTINUOUS
  0
ENDTAB
  0
ENDSEC
  0
SECTION
  2
BLOCKS
  0
ENDSEC
  0
SECTION
  2
ENTITIES
  0
LINE
  8
_0-0_
  6
CONTINUOUS
 62
    4
 10
1029.9254991561138
 20
1195.9922480620146
 11
1029.9254991561138
 21
991.9922480620146
  0
LINE
  8
_0-0_
  6
CONTINUOUS
 62
    7
 10
939.50457202305199
 20
332.52048861090884
 11
905.75457202305199
 21
332.52048861090884
  0
LINE
  8
_0-0_
  6
CONTINUOUS
 62
    7
 10
672.13606690525205
 20
567.53106997205509
 11
1706.8525777203686
 21
567.53106997205509
  0
LINE
  8
_0-0_
  6
CONTINUOUS
 62
    7
 10
672.13606690525205
 20
167.53106997205509
 11
1706.8525777203686
 21
167.53106997205509
  0
LINE
  8
_0-0_
  6
CONTINUOUS
 62
    7
 10
672.13606690525205
 20
627.53106997205509
 11
1706.8525777203686
 21
627.53106997205509
  0
LINE
  8
_0-0_
  6
CONTINUOUS
 62
    7
 10
1189.4943223128103
 20
627.53106997205509
 11
1189.4943223128103
 21
167.53106997205509
  0
LINE
  8
_0-0_
  6
CONTINUOUS
 62
    7
 10
672.13606690525205
 20
1633.3565543671132
 11
672.13606690525205
 21
167.53106997205509
  0
LINE
  8
_0-0_
  6
CONTINUOUS
 62
    7
 10
1706.8525777203686
 20
1633.3565543671132
 11
1706.8525777203686
 21
167.53106997205509
  0
TEXT
  8
_0-0_
 62
    7
 10
906.73245032900388
 20
575.6797341210106
 40
40
 41
1
 50
0
  1
Ａ
  0
TEXT
  8
_0-0_
 62
    7
 10
1429.6891920142098
 20
576.02721287347708
 40
40
 41
1
 50
0
  1
Ｂ
  0
LINE
  8
_0-0_
  6
CONTINUOUS
 62
    7
 10
905.75457202305199
 20
332.52048861090884
 11
905.75457202305199
 21
366.27048861090884
  0
LINE
  8
_0-0_
  6
CONTINUOUS
 62
    7
 10
905.75457202305199
 20
366.27048861090884
 11
939.50457202305199
 21
366.27048861090884
  0
LINE
  8
_0-0_
  6
CONTINUOUS
 62
    4
 10
953.00457202305199
 20
346.02048861090884
 11
905.75457202305199
 21
346.02048861090884
  0
LINE
  8
_0-0_
  6
CONTINUOUS
 62
    7
 10
934.38607072024035
 20
366.27048861090884
 11
939.50457202305199
 21
371.38898991371684
  0
ARC
  8
_0-0_
  6
CONTINUOUS
 62
    2
 10
993.09851076150892
 20
387.37478110321467
 40
57.599491587186634
 50
201.49359415795911
 51
225.88654089400154
  0
LINE
  8
_0-0_
  6
CONTINUOUS
 62
    2
 10
951.26796832288539
 20
346.02048861090884
 11
952.13209080748504
 21
346.88461109550849
  0
LINE
  8
_0-0_
  6
CONTINUOUS
 62
    2
 10
944.90400729220539
 20
346.02048861090884
 11
949.0932652092016
 21
350.20974652790687
  0
LINE
  8
_0-0_
  6
CONTINUOUS
 62
    2
 10
938.54004626152903
 20
346.02048861090884
 11
946.30608790975941
 21
353.78653025913741
  0
LINE
  8
_0-0_
  6
CONTINUOUS
 62
    2
 10
932.17608523084721
 20
346.0204886109052
 11
943.77809694140535
 21
357.62250032146517
  0
LINE
  8
_0-0_
  6
CONTINUOUS
 62
    2
 10
925.8121242001672
 20
346.0204886109052
 11
941.52246062093775
 21
361.73082503167757
  0
LINE
  8
_0-0_
  6
CONTINUOUS
 62
    2
 10
919.44816316949448
 20
346.02048861090884
 11
939.55941580511364
 21
366.13174124652983
  0
LINE
  8
_0-0_
  6
CONTINUOUS
 62
    2
 10
913.08420213881266
 20
346.02048861090884
 11
933.33420213881266
 21
366.27048861090884
  0
LINE
  8
_0-0_
  6
CONTINUOUS
 62
    2
 10
906.72024110813447
 20
346.02048861090884
 11
926.97024110813447
 21
366.27048861090884
  0
LINE
  8
_0-0_
  6
CONTINUOUS
 62
    2
 10
905.75457202305199
 20
351.41878055650818
 11
920.60628007745265
 21
366.27048861090884
  0
LINE
  8
_0-0_
  6
CONTINUOUS
 62
    2
 10
905.75457202305199
 20
357.78274158718273
 11
914.24231904677447
 21
366.2704886109052
  0
LINE
  8
_0-0_
  6
CONTINUOUS
 62
    2
 10
905.75457202305199
 20
364.14670261786091
 11
907.87835801609629
 21
366.27048861090884
  0
LINE
  8
_0-0_
  6
CONTINUOUS
 62
    7
 10
939.50457202305199
 20
366.27048861090884
 11
939.50457202305199
 21
511.18606721464243
  0
LINE
  8
_0-0_
  6
CONTINUOUS
 62
    7
 10
791.24028774411647
 20
223.12470563478132
 11
905.75457202305199
 21
337.63898991371684
  0
LINE
  8
_0-0_
  6
CONTINUOUS
 62
    7
 10
807.15019032081193
 20
223.12470563478132
 11
916.54597329693763
 21
332.52048861090884
  0
LINE
  8
_0-0_
  6
CONTINUOUS
 62
    7
 10
823.06009289750739
 20
223.12470563478132
 11
932.45587587363491
 21
332.52048861090884
  0
LINE
  8
_0-0_
  6
CONTINUOUS
 62
    4
 10
953.00457202305199
 20
346.02048861090884
 11
953.00457202305199
 21
223.12470563478132
  0
LINE
  8
_0-0_
  6
CONTINUOUS
 62
    7
 10
939.50457202305199
 20
223.12470563478132
 11
939.50457202305199
 21
332.52048861090884
  0
LINE
  8
_0-0_
  6
CONTINUOUS
 62
    7
 10
953.51410748944556
 20
1440.9858702173544
 11
951.12900748944605
 21
1434.432670217356
  0
LINE
  8
_0-0_
  6
CONTINUOUS
 62
    7
 10
953.51410748944556
 20
1440.9858702173544
 11
944.33690748944548
 21
1427.8794702173539
  0
LINE
  8
_0-0_
  6
CONTINUOUS
 62
    7
 10
944.33690748944548
 20
1427.8794702173539
 11
946.72200748944681
 21
1434.432670217356
  0
LINE
  8
_0-0_
  6
CONTINUOUS
 62
    7
 10
860.86667720276466
 20
1434.432670217356
 11
946.72200748944681
 21
1434.432670217356
  0
LINE
  8
_0-0_
  6
CONTINUOUS
 62
    7
 10
951.12900748944605
 20
1434.432670217356
 11
1037.5246414752928
 21
1434.432670217356
  0
LINE
  8
_0-0_
  6
CONTINUOUS
 62
    7
 10
873.92549915611391
 20
1246.5413075096251
 11
1023.9254991561139
 21
1396.5413075096251
  0
LINE
  8
_0-0_
  6
CONTINUOUS
 62
    7
 10
873.92549915611391
 20
1239.4702396977621
 11
1023.9254991561139
 21
1389.4702396977621
  0
LINE
  8
_0-0_
  6
CONTINUOUS
 62
    7
 10
873.92549915611391
 20
1232.3991718858972
 11
1023.9254991561139
 21
1382.399171885899
  0
LINE
  8
_0-0_
  6
CONTINUOUS
 62
    7
 10
873.92549915611391
 20
1434.432670217356
 11
873.92549915611391
 21
772.9922480620146
  0
CIRCLE
  8
_0-0_
  6
DASHED2
 62
    1
 10
1023.9254991561139
 20
1167.9922480620146
 40
47.507213168919911
  0
TEXT
  8
_0-0_
 62
    7
 10
990.88025748601297
 20
1199.3142823383016
 40
24
 41
1
 50
0
  1
Ａ
  0
LINE
  8
_0-0_
  6
CONTINUOUS
 62
    7
 10
929.34307284690306
 20
352.7088811187416
 11
985.75992633854742
 21
450.4257377694405
  0
POINT
  8
_0-0_
 62
    7
 10
929.34307284690306
 20
352.7088811187416
  0
TEXT
  8
_0-0_
 62
    7
 10
987.28360781871027
 20
442.52673463905307
 40
21.617968000000001
 41
1
 50
0
  1
ｼｰﾘﾝｸﾞ
  0
LINE
  8
_0-0_
  6
CONTINUOUS
 62
    7
 10
1022.6196214063494
 20
1163.4106373771494
 11
1072.0357106807751
 21
1249.0018147118146
  0
POINT
  8
_0-0_
 62
    7
 10
1022.6196214063494
 20
1163.4106373771494
  0
TEXT
  8
_0-0_
 62
    7
 10
1074.5088904301938
 20
1234.1959985888709
 40
30
 41
1
 50
0
  1
ｼｰﾘﾝｸﾞ
  0
LINE
  8
_0-0_
  6
CONTINUOUS
 62
    7
 10
1223.9254991561138
 20
802.9922480620146
 11
1523.9254991561138
 21
802.9922480620146
  0
LINE
  8
_0-0_
  6
CONTINUOUS
 62
    7
 10
873.92549915611391
 20
793.99296755023647
 11
1062.9247796678937
 21
982.9922480620146
  0
LINE
  8
_0-0_
  6
CONTINUOUS
 62
    7
 10
873.92549915611391
 20
786.92189973837162
 11
1069.9958474797586
 21
982.9922480620146
  0
LINE
  8
_0-0_
  6
CONTINUOUS
 62
    7
 10
873.92549915611391
 20
779.85083192650677
 11
1077.0669152916234
 21
982.9922480620146
  0
LINE
  8
_0-0_
  6
CONTINUOUS
 62
    7
 10
1079.1989496475871
 20
772.9922480620146
 11
1289.1989496475871
 21
982.9922480620146
  0
LINE
  8
_0-0_
  6
CONTINUOUS
 62
    7
 10
1086.2700174594538
 20
772.9922480620146
 11
1296.2700174594538
 21
982.9922480620146
  0
LINE
  8
_0-0_
  6
CONTINUOUS
 62
    7
 10
1093.3410852713168
 20
772.9922480620146
 11
1303.3410852713168
 21
982.9922480620146
  0
LINE
  8
_0-0_
  6
CONTINUOUS
 62
    7
 10
1223.9254991561138
 20
802.9922480620146
 11
1223.9254991561138
 21
772.9922480620146
  0
CIRCLE
  8
_0-0_
  6
DASHED2
 62
    1
 10
1029.9254991561138
 20
1033.3316468477308
 40
80
  0
TEXT
  8
_0-0_
 62
    7
 10
988.80137739395298
 20
1095.061746710476
 40
24
 41
1
 50
0
  1
Ｂ
  0
LINE
  8
_0-0_
  6
CONTINUOUS
 62
    7
 10
1023.9254991561139
 20
982.9922480620146
 11
1523.9254991561138
 21
982.9922480620146
  0
LINE
  8
_0-0_
  6
CONTINUOUS
 62
    7
 10
1335.4731196272842
 20
802.9922480620146
 11
1515.4731196272842
 21
982.9922480620146
  0
LINE
  8
_0-0_
  6
CONTINUOUS
 62
    7
 10
1342.5441874391472
 20
802.9922480620146
 11
1522.544187439149
 21
982.9922480620146
  0
LINE
  8
_0-0_
  6
CONTINUOUS
 62
    7
 10
1349.6152552510139
 20
802.9922480620146
 11
1523.9254991561138
 21
977.30249196711452
  0
LINE
  8
_0-0_
  6
CONTINUOUS
 62
    7
 10
1008.9254991561139
 20
1189.9922480620146
 11
1008.9254991561139
 21
1204.9922480620146
  0
LINE
  8
_0-0_
  6
CONTINUOUS
 62
    7
 10
1023.9254991561139
 20
1189.9922480620146
 11
1008.9254991561139
 21
1189.9922480620146
  0
LINE
  8
_0-0_
  6
CONTINUOUS
 62
    7
 10
1023.9254991561139
 20
1204.9922480620146
 11
1023.9254991561139
 21
1434.432670217356
  0
LINE
  8
_0-0_
  6
CONTINUOUS
 62
    7
 10
1008.9254991561139
 20
1204.9922480620146
 11
1023.9254991561139
 21
1204.9922480620146
  0
LINE
  8
_0-0_
  6
CONTINUOUS
 62
    4
 10
1029.9254991561138
 20
1195.9922480620146
 11
1008.9254991561139
 21
1195.9922480620146
  0
LINE
  8
_0-0_
  6
CONTINUOUS
 62
    7
 10
1009.3132685852544
 20
1204.6081936244148
 11
1024.3132685852543
 21
1204.6081936244148
  0
LINE
  8
_0-0_
  6
CONTINUOUS
 62
    4
 10
1030.3132685852543
 20
1195.6081936244148
 11
1009.3132685852544
 21
1195.6081936244148
  0
ARC
  8
_0-0_
  6
CONTINUOUS
 62
    2
 10
1048.1327969134563
 20
1213.9878791765507
 40
25.599774038749615
 50
201.49359415795911
 51
225.88654089400154
  0
LINE
  8
_0-0_
  6
CONTINUOUS
 62
    2
 10
1029.541444718514
 20
1195.6081936244148
 11
1029.9254991561138
 21
1195.9922480620146
  0
LINE
  8
_0-0_
  6
CONTINUOUS
 62
    2
 10
1026.7130175937673
 20
1195.6081936244148
 11
1028.5749100013199
 21
1197.4700860319711
  0
LINE
  8
_0-0_
  6
CONTINUOUS
 62
    2
 10
1023.8845904690207
 20
1195.6081936244148
 11
1027.3361645349014
 21
1199.0597676902955
  0
LINE
  8
_0-0_
  6
CONTINUOUS
 62
    2
 10
1021.0561633442741
 20
1195.6081936244148
 11
1026.2126129934113
 21
1200.7646432735521
  0
LINE
  8
_0-0_
  6
CONTINUOUS
 62
    2
 10
1018.2277362195274
 20
1195.6081936244148
 11
1025.2101079620916
 21
1202.590565366979
  0
LINE
  8
_0-0_
  6
CONTINUOUS
 62
    2
 10
1015.3993090947844
 20
1195.6081936244148
 11
1024.3376435995033
 21
1204.5465281291356
  0
LINE
  8
_0-0_
  6
CONTINUOUS
 62
    2
 10
1012.5708819700377
 20
1195.6081936244148
 11
1021.5708819700377
 21
1204.6081936244166
  0
LINE
  8
_0-0_
  6
CONTINUOUS
 62
    2
 10
1009.742454845291
 20
1195.6081936244166
 11
1018.742454845291
 21
1204.6081936244148
  0
LINE
  8
_0-0_
  6
CONTINUOUS
 62
    2
 10
1009.3132685852544
 20
1198.0074344891266
 11
1015.9140277205425
 21
1204.6081936244148
  0
LINE
  8
_0-0_
  6
CONTINUOUS
 62
    2
 10
1009.3132685852544
 20
1200.8358616138714
 11
1013.0856005957977
 21
1204.6081936244148
  0
LINE
  8
_0-0_
  6
CONTINUOUS
 62
    2
 10
1009.3132685852544
 20
1203.6642887386181
 11
1010.257173471051
 21
1204.6081936244148
  0
POINT
  8
_0-0_
 62
    7
 10
1023.0073908354899
 20
1200.0265829395496
  0
LINE
  8
_0-0_
  6
CONTINUOUS
 62
    7
 10
1023.9254991561139
 20
982.9922480620146
 11
1023.9254991561139
 21
1189.9922480620146
  0
LINE
  8
_0-0_
  6
CONTINUOUS
 62
    7
 10
873.92549915611391
 20
1006.125001906202
 11
1023.9254991561139
 21
1156.125001906202
  0
LINE
  8
_0-0_
  6
CONTINUOUS
 62
    7
 10
873.92549915611391
 20
1013.196069718065
 11
1023.9254991561139
 21
1163.196069718065
  0
LINE
  8
_0-0_
  6
CONTINUOUS
 62
    7
 10
873.92549915611391
 20
1020.2671375299317
 11
1023.9254991561139
 21
1170.2671375299317
  0
POINT
  8
_0-0_
 62
    7
 10
1337.1185834863536
 20
987.32039321624802
  0
LINE
  8
_0-0_
  6
CONTINUOUS
 62
    7
 10
1337.1185834863536
 20
987.32039321624802
 11
1430.4565639073262
 21
1148.9865175812404
  0
TEXT
  8
_0-0_
 62
    7
 10
1434.9264839000716
 20
1136.8791128179157
 40
30
 41
1
 50
0
  1
防水層
  0
LINE
  8
_0-0_
  6
CONTINUOUS
 62
    4
 10
1029.9254991561138
 20
991.9922480620146
 11
1523.9254991561138
 21
991.9922480620146
  0
LINE
  8
_0-0_
  6
CONTINUOUS
 62
    6
 10
1029.9254991561138
 20
992.9922480620146
 11
1523.9254991561138
 21
992.9922480620146
  0
LINE
  8
_0-0_
  6
CONTINUOUS
 62
    7
 10
1521.4076835609631
 20
1027.9922480620146
 11
1029.9254991561138
 21
1027.9922480620146
  0
LINE
  8
_0-0_
  6
CONTINUOUS
 62
    6
 10
1490.5550642416492
 20
1027.9922480620146
 11
1523.9254991561138
 21
994.62181314755185
  0
LINE
  8
_0-0_
  6
CONTINUOUS
 62
    6
 10
1504.6971998653789
 20
1027.9922480620146
 11
1523.9254991561138
 21
1008.7639487712815
  0
LINE
  8
_0-0_
  6
CONTINUOUS
 62
    6
 10
1511.569072301987
 20
992.9922480620146
 11
1523.9254991561138
 21
1005.3486749161377
  0
LINE
  8
_0-0_
  6
CONTINUOUS
 62
    6
 10
1518.8393354891123
 20
1027.9922480620146
 11
1523.9254991561138
 21
1022.9060843950131
  0
LINE
  8
_0-0_
  6
CONTINUOUS
 62
    6
 10
1497.4269366782537
 20
992.9922480620146
 11
1523.9254991561138
 21
1019.4908105398692
  0
LINE
  8
_0-0_
  6
CONTINUOUS
 62
    6
 10
1029.9254991561138
 20
1027.9922480620146
 11
1029.9254991561138
 21
992.9922480620146
  0
LINE
  8
_0-0_
  6
CONTINUOUS
 62
    6
 10
1029.9254991561138
 20
993.64706631696686
 11
1030.5803174110624
 21
992.9922480620146
  0
LINE
  8
_0-0_
  6
CONTINUOUS
 62
    6
 10
1029.9254991561102
 20
1007.7892019406984
 11
1044.7224530347958
 21
992.99224806201278
  0
LINE
  8
_0-0_
  6
CONTINUOUS
 62
    6
 10
1029.9254991561138
 20
1021.9313375644281
 11
1058.8645886585255
 21
992.9922480620146
  0
LINE
  8
_0-0_
  6
CONTINUOUS
 62
    6
 10
1038.0067242822588
 20
1027.9922480620128
 11
1073.0067242822588
 21
992.99224806201278
  0
LINE
  8
_0-0_
  6
CONTINUOUS
 62
    6
 10
1052.1488599059885
 20
1027.9922480620128
 11
1087.1488599059885
 21
992.99224806201278
  0
LINE
  8
_0-0_
  6
CONTINUOUS
 62
    6
 10
1066.2909955297218
 20
1027.9922480620146
 11
1101.2909955297218
 21
992.9922480620146
  0
LINE
  8
_0-0_
  6
CONTINUOUS
 62
    6
 10
1080.4331311534515
 20
1027.9922480620128
 11
1115.4331311534479
 21
992.9922480620146
  0
LINE
  8
_0-0_
  6
CONTINUOUS
 62
    6
 10
1094.5752667771812
 20
1027.9922480620128
 11
1129.5752667771812
 21
992.99224806201278
  0
LINE
  8
_0-0_
  6
CONTINUOUS
 62
    6
 10
1108.7174024009109
 20
1027.9922480620146
 11
1143.7174024009109
 21
992.9922480620146
  0
LINE
  8
_0-0_
  6
CONTINUOUS
 62
    6
 10
1122.8595380246443
 20
1027.9922480620128
 11
1157.8595380246443
 21
992.99224806201278
  0
LINE
  8
_0-0_
  6
CONTINUOUS
 62
    6
 10
1137.001673648374
 20
1027.9922480620128
 11
1172.001673648374
 21
992.99224806201278
  0
LINE
  8
_0-0_
  6
CONTINUOUS
 62
    6
 10
1151.1438092721073
 20
1027.9922480620146
 11
1186.1438092721073
 21
992.9922480620146
  0
LINE
  8
_0-0_
  6
CONTINUOUS
 62
    6
 10
1165.285944895837
 20
1027.9922480620128
 11
1200.2859448958334
 21
992.9922480620146
  0
LINE
  8
_0-0_
  6
CONTINUOUS
 62
    6
 10
1179.4280805195667
 20
1027.9922480620146
 11
1214.4280805195667
 21
992.9922480620146
  0
LINE
  8
_0-0_
  6
CONTINUOUS
 62
    6
 10
1193.5702161432964
 20
1027.9922480620146
 11
1228.5702161432964
 21
992.9922480620146
  0
LINE
  8
_0-0_
  6
CONTINUOUS
 62
    6
 10
1207.7123517670298
 20
1027.9922480620128
 11
1242.7123517670298
 21
992.9922480620146
  0
LINE
  8
_0-0_
  6
CONTINUOUS
 62
    6
 10
1221.8544873907595
 20
1027.9922480620146
 11
1256.8544873907595
 21
992.9922480620146
  0
LINE
  8
_0-0_
  6
CONTINUOUS
 62
    6
 10
1235.9966230144928
 20
1027.9922480620146
 11
1270.9966230144928
 21
992.9922480620146
  0
LINE
  8
_0-0_
  6
CONTINUOUS
 62
    6
 10
1250.1387586382225
 20
1027.9922480620146
 11
1285.1387586382189
 21
992.9922480620146
  0
LINE
  8
_0-0_
  6
CONTINUOUS
 62
    6
 10
1264.2808942619522
 20
1027.9922480620146
 11
1299.2808942619522
 21
992.9922480620146
  0
LINE
  8
_0-0_
  6
CONTINUOUS
 62
    6
 10
1278.4230298856819
 20
1027.9922480620146
 11
1313.4230298856855
 21
992.9922480620146
  0
LINE
  8
_0-0_
  6
CONTINUOUS
 62
    6
 10
1292.5651655094152
 20
1027.9922480620146
 11
1327.5651655094152
 21
992.9922480620146
  0
LINE
  8
_0-0_
  6
CONTINUOUS
 62
    6
 10
1306.7073011331449
 20
1027.9922480620146
 11
1341.7073011331449
 21
992.9922480620146
  0
LINE
  8
_0-0_
  6
CONTINUOUS
 62
    6
 10
1320.8494367568783
 20
1027.9922480620146
 11
1355.8494367568783
 21
992.9922480620146
  0
LINE
  8
_0-0_
  6
CONTINUOUS
 62
    6
 10
1334.9915723806043
 20
1027.9922480620146
 11
1369.991572380608
 21
992.9922480620146
  0
LINE
  8
_0-0_
  6
CONTINUOUS
 62
    6
 10
1349.1337080043377
 20
1027.9922480620146
 11
1384.1337080043377
 21
992.9922480620146
  0
LINE
  8
_0-0_
  6
CONTINUOUS
 62
    6
 10
1363.275843628071
 20
1027.9922480620146
 11
1398.275843628071
 21
992.9922480620146
  0
LINE
  8
_0-0_
  6
CONTINUOUS
 62
    6
 10
1377.4179792518007
 20
1027.9922480620146
 11
1412.4179792518007
 21
992.9922480620146
  0
LINE
  8
_0-0_
  6
CONTINUOUS
 62
    6
 10
1391.5601148755304
 20
1027.9922480620146
 11
1426.5601148755341
 21
992.9922480620146
  0
LINE
  8
_0-0_
  6
CONTINUOUS
 62
    6
 10
1405.7022504992638
 20
1027.9922480620146
 11
1440.7022504992638
 21
992.9922480620146
  0
LINE
  8
_0-0_
  6
CONTINUOUS
 62
    6
 10
1419.8443861229935
 20
1027.9922480620128
 11
1454.8443861229935
 21
992.9922480620146
  0
LINE
  8
_0-0_
  6
CONTINUOUS
 62
    6
 10
1433.9865217467268
 20
1027.9922480620146
 11
1468.9865217467268
 21
992.9922480620146
  0
LINE
  8
_0-0_
  6
CONTINUOUS
 62
    6
 10
1448.1286573704565
 20
1027.9922480620146
 11
1483.1286573704565
 21
992.9922480620146
  0
LINE
  8
_0-0_
  6
CONTINUOUS
 62
    6
 10
1462.2707929941862
 20
1027.9922480620146
 11
1497.2707929941862
 21
992.9922480620146
  0
LINE
  8
_0-0_
  6
CONTINUOUS
 62
    6
 10
1476.4129286179195
 20
1027.9922480620146
 11
1511.4129286179195
 21
992.9922480620146
  0
LINE
  8
_0-0_
  6
CONTINUOUS
 62
    6
 10
1483.2848010545276
 20
992.99224806201278
 11
1518.2848010545276
 21
1027.9922480620128
  0
LINE
  8
_0-0_
  6
CONTINUOUS
 62
    6
 10
1469.1426654307943
 20
992.9922480620146
 11
1504.1426654307943
 21
1027.9922480620146
  0
LINE
  8
_0-0_
  6
CONTINUOUS
 62
    6
 10
1455.0005298070646
 20
992.9922480620146
 11
1490.0005298070646
 21
1027.9922480620146
  0
LINE
  8
_0-0_
  6
CONTINUOUS
 62
    6
 10
1440.8583941833313
 20
992.99224806201278
 11
1475.8583941833313
 21
1027.9922480620128
  0
LINE
  8
_0-0_
  6
CONTINUOUS
 62
    6
 10
1426.7162585596016
 20
992.9922480620146
 11
1461.7162585596016
 21
1027.9922480620146
  0
LINE
  8
_0-0_
  6
CONTINUOUS
 62
    6
 10
1412.5741229358682
 20
992.9922480620146
 11
1447.5741229358682
 21
1027.9922480620146
  0
LINE
  8
_0-0_
  6
CONTINUOUS
 62
    6
 10
1398.4319873121422
 20
992.9922480620146
 11
1433.4319873121422
 21
1027.9922480620146
  0
LINE
  8
_0-0_
  6
CONTINUOUS
 62
    6
 10
1384.2898516884088
 20
992.9922480620146
 11
1419.2898516884088
 21
1027.9922480620146
  0
LINE
  8
_0-0_
  6
CONTINUOUS
 62
    6
 10
1370.1477160646791
 20
992.9922480620146
 11
1405.1477160646791
 21
1027.9922480620146
  0
LINE
  8
_0-0_
  6
CONTINUOUS
 62
    6
 10
1356.0055804409458
 20
992.9922480620146
 11
1391.0055804409458
 21
1027.9922480620146
  0
LINE
  8
_0-0_
  6
CONTINUOUS
 62
    6
 10
1341.8634448172161
 20
992.9922480620146
 11
1376.8634448172161
 21
1027.9922480620146
  0
LINE
  8
_0-0_
  6
CONTINUOUS
 62
    6
 10
1327.7213091934827
 20
992.9922480620146
 11
1362.7213091934827
 21
1027.9922480620146
  0
LINE
  8
_0-0_
  6
CONTINUOUS
 62
    6
 10
1313.5791735697567
 20
992.9922480620146
 11
1348.5791735697567
 21
1027.9922480620146
  0
LINE
  8
_0-0_
  6
CONTINUOUS
 62
    6
 10
1299.4370379460233
 20
992.9922480620146
 11
1334.4370379460233
 21
1027.9922480620146
  0
LINE
  8
_0-0_
  6
CONTINUOUS
 62
    6
 10
1285.29490232229
 20
992.9922480620146
 11
1320.29490232229
 21
1027.9922480620128
  0
LINE
  8
_0-0_
  6
CONTINUOUS
 62
    6
 10
1271.1527666985603
 20
992.9922480620146
 11
1306.1527666985603
 21
1027.9922480620146
  0
LINE
  8
_0-0_
  6
CONTINUOUS
 62
    6
 10
1257.0106310748306
 20
992.9922480620146
 11
1292.0106310748306
 21
1027.9922480620146
  0
LINE
  8
_0-0_
  6
CONTINUOUS
 62
    6
 10
1242.8684954510973
 20
992.99224806201278
 11
1277.8684954510973
 21
1027.9922480620128
  0
LINE
  8
_0-0_
  6
CONTINUOUS
 62
    6
 10
1228.7263598273712
 20
992.9922480620146
 11
1263.7263598273712
 21
1027.9922480620146
  0
LINE
  8
_0-0_
  6
CONTINUOUS
 62
    6
 10
1214.5842242036379
 20
992.9922480620146
 11
1249.5842242036379
 21
1027.9922480620146
  0
LINE
  8
_0-0_
  6
CONTINUOUS
 62
    6
 10
1200.4420885799045
 20
992.9922480620146
 11
1235.4420885799045
 21
1027.9922480620146
  0
LINE
  8
_0-0_
  6
CONTINUOUS
 62
    6
 10
1186.2999529561748
 20
992.9922480620146
 11
1221.2999529561748
 21
1027.9922480620146
  0
LINE
  8
_0-0_
  6
CONTINUOUS
 62
    6
 10
1172.1578173324451
 20
992.9922480620146
 11
1207.1578173324451
 21
1027.9922480620146
  0
LINE
  8
_0-0_
  6
CONTINUOUS
 62
    6
 10
1158.0156817087118
 20
992.9922480620146
 11
1193.0156817087118
 21
1027.9922480620128
  0
LINE
  8
_0-0_
  6
CONTINUOUS
 62
    6
 10
1143.8735460849857
 20
992.9922480620146
 11
1178.8735460849857
 21
1027.9922480620146
  0
LINE
  8
_0-0_
  6
CONTINUOUS
 62
    6
 10
1129.7314104612524
 20
992.9922480620146
 11
1164.7314104612524
 21
1027.9922480620146
  0
LINE
  8
_0-0_
  6
CONTINUOUS
 62
    6
 10
1115.589274837519
 20
992.99224806201278
 11
1150.589274837519
 21
1027.9922480620146
  0
LINE
  8
_0-0_
  6
CONTINUOUS
 62
    6
 10
1101.4471392137893
 20
992.9922480620146
 11
1136.4471392137893
 21
1027.9922480620146
  0
LINE
  8
_0-0_
  6
CONTINUOUS
 62
    6
 10
1087.3050035900596
 20
992.9922480620146
 11
1122.3050035900596
 21
1027.9922480620146
  0
LINE
  8
_0-0_
  6
CONTINUOUS
 62
    6
 10
1073.1628679663263
 20
992.9922480620146
 11
1108.1628679663263
 21
1027.9922480620128
  0
LINE
  8
_0-0_
  6
CONTINUOUS
 62
    6
 10
1059.0207323426002
 20
992.9922480620146
 11
1094.0207323426002
 21
1027.9922480620146
  0
LINE
  8
_0-0_
  6
CONTINUOUS
 62
    6
 10
1044.8785967188669
 20
992.9922480620146
 11
1079.8785967188669
 21
1027.9922480620146
  0
LINE
  8
_0-0_
  6
CONTINUOUS
 62
    6
 10
1030.7364610951336
 20
992.99224806201278
 11
1065.7364610951336
 21
1027.9922480620128
  0
LINE
  8
_0-0_
  6
CONTINUOUS
 62
    6
 10
1029.9254991561102
 20
1006.3234217467209
 11
1051.5943254714039
 21
1027.9922480620146
  0
LINE
  8
_0-0_
  6
CONTINUOUS
 62
    6
 10
1029.9254991561102
 20
1020.4655573704524
 11
1037.4521898476742
 21
1027.9922480620146
  0
LINE
  8
_0-0_
  6
CONTINUOUS
 62
    6
 10
1029.9254991561138
 20
1027.9922480620146
 11
1523.9254991561138
 21
1027.9922480620146
  0
LINE
  8
_0-0_
  6
CONTINUOUS
 62
    5
 10
1049.9254991561138
 20
1109.9922480620146
 11
1049.9254991561138
 21
1029.9922480620146
  0
LINE
  8
_0-0_
  6
CONTINUOUS
 62
    5
 10
1044.8650490463551
 20
1109.9922480620146
 11
1049.9254991561138
 21
1104.9317979522577
  0
LINE
  8
_0-0_
  6
CONTINUOUS
 62
    5
 10
1039.2081947968618
 20
1109.9922480620146
 11
1049.9254991561138
 21
1099.2749437027644
  0
LINE
  8
_0-0_
  6
CONTINUOUS
 62
    5
 10
1033.5513405473721
 20
1109.9922480620146
 11
1049.9254991561138
 21
1093.6180894532729
  0
LINE
  8
_0-0_
  6
CONTINUOUS
 62
    5
 10
1029.9254991561138
 20
1107.9612352037814
 11
1049.9254991561138
 21
1087.9612352037814
  0
LINE
  8
_0-0_
  6
CONTINUOUS
 62
    5
 10
1029.9254991561138
 20
1102.3043809542899
 11
1049.9254991561138
 21
1082.3043809542899
  0
LINE
  8
_0-0_
  6
CONTINUOUS
 62
    5
 10
1029.9254991561138
 20
1096.6475267047983
 11
1049.9254991561138
 21
1076.6475267047983
  0
LINE
  8
_0-0_
  6
CONTINUOUS
 62
    5
 10
1029.9254991561138
 20
1090.990672455305
 11
1049.9254991561138
 21
1070.9906724553032
  0
LINE
  8
_0-0_
  6
CONTINUOUS
 62
    5
 10
1029.9254991561138
 20
1085.3338182058098
 11
1049.9254991561138
 21
1065.3338182058117
  0
LINE
  8
_0-0_
  6
CONTINUOUS
 62
    5
 10
1029.9254991561138
 20
1079.6769639563183
 11
1049.9254991561138
 21
1059.6769639563183
  0
LINE
  8
_0-0_
  6
CONTINUOUS
 62
    5
 10
1029.9254991561138
 20
1074.0201097068268
 11
1049.9254991561138
 21
1054.0201097068268
  0
LINE
  8
_0-0_
  6
CONTINUOUS
 62
    5
 10
1029.9254991561138
 20
1068.3632554573353
 11
1049.9254991561138
 21
1048.3632554573353
  0
LINE
  8
_0-0_
  6
CONTINUOUS
 62
    5
 10
1029.9254991561138
 20
1062.706401207842
 11
1049.9254991561138
 21
1042.706401207842
  0
LINE
  8
_0-0_
  6
CONTINUOUS
 62
    5
 10
1029.9254991561138
 20
1057.0495469583504
 11
1049.9254991561138
 21
1037.0495469583504
  0
LINE
  8
_0-0_
  6
CONTINUOUS
 62
    5
 10
1029.9254991561138
 20
1051.3926927088589
 11
1049.9254991561138
 21
1031.3926927088589
  0
LINE
  8
_0-0_
  6
CONTINUOUS
 62
    5
 10
1029.9254991561138
 20
1045.7358384593656
 11
1045.669089553463
 21
1029.9922480620146
  0
LINE
  8
_0-0_
  6
CONTINUOUS
 62
    5
 10
1029.9254991561138
 20
1040.0789842098723
 11
1040.0122353039696
 21
1029.9922480620146
  0
LINE
  8
_0-0_
  6
CONTINUOUS
 62
    5
 10
1029.9254991561138
 20
1034.4221299603789
 11
1034.3553810544763
 21
1029.9922480620128
  0
LINE
  8
_0-0_
  6
CONTINUOUS
 62
    5
 10
1049.9254991561138
 20
1109.9922480620146
 11
1029.9254991561138
 21
1109.9922480620146
  0
LINE
  8
_0-0_
  6
CONTINUOUS
 62
    7
 10
1049.9254991561138
 20
1035.0801181474319
 11
1055.0133692415293
 21
1029.9922480620146
  0
LINE
  8
_0-0_
  6
CONTINUOUS
 62
    7
 10
1049.9254991561138
 20
1042.1511859592949
 11
1062.0844370533923
 21
1029.9922480620146
  0
LINE
  8
_0-0_
  6
CONTINUOUS
 62
    7
 10
1049.9254991561138
 20
1049.2222537711616
 11
1069.155504865259
 21
1029.9922480620128
  0
LINE
  8
_0-0_
  6
CONTINUOUS
 62
    5
 10
1209.9170117350404
 20
1106.4922480620146
 11
1209.9170117350404
 21
1029.9922480620146
  0
LINE
  8
_0-0_
  6
CONTINUOUS
 62
    5
 10
1189.9170117350404
 20
1106.4922480620146
 11
1209.9170117350404
 21
1106.4922480620146
  0
LINE
  8
_0-0_
  6
CONTINUOUS
 62
    5
 10
1189.9170117350404
 20
1029.9922480620146
 11
1189.9170117350404
 21
1106.4922480620146
  0
LINE
  8
_0-0_
  6
CONTINUOUS
 62
    5
 10
1188.9170117350404
 20
1107.9922480620146
 11
1210.9170117350404
 21
1107.9922480620146
  0
LINE
  8
_0-0_
  6
CONTINUOUS
 62
    5
 10
1188.9170117350404
 20
1106.9922480620146
 11
1188.9170117350404
 21
1107.9922480620146
  0
LINE
  8
_0-0_
  6
CONTINUOUS
 62
    5
 10
1190.9170117350404
 20
1106.9922480620146
 11
1188.9170117350404
 21
1106.9922480620146
  0
LINE
  8
_0-0_
  6
CONTINUOUS
 62
    5
 10
1190.9170117350404
 20
1106.4922480620146
 11
1190.9170117350404
 21
1106.9922480620146
  0
LINE
  8
_0-0_
  6
CONTINUOUS
 62
    5
 10
1188.9170117350404
 20
1106.4922480620146
 11
1190.9170117350404
 21
1106.4922480620146
  0
LINE
  8
_0-0_
  6
CONTINUOUS
 62
    5
 10
1188.9170117350404
 20
1094.9922480620146
 11
1188.9170117350404
 21
1106.4922480620146
  0
LINE
  8
_0-0_
  6
CONTINUOUS
 62
    5
 10
1189.4170117350404
 20
1094.9922480620146
 11
1188.9170117350404
 21
1094.9922480620146
  0
LINE
  8
_0-0_
  6
CONTINUOUS
 62
    5
 10
1188.9170117350404
 20
1093.9922480620146
 11
1189.4170117350404
 21
1094.9922480620146
  0
LINE
  8
_0-0_
  6
CONTINUOUS
 62
    5
 10
1188.9170117350404
 20
1080.9922480620146
 11
1188.9170117350404
 21
1093.9922480620146
  0
LINE
  8
_0-0_
  6
CONTINUOUS
 62
    5
 10
1189.4170117350404
 20
1080.9922480620146
 11
1188.9170117350404
 21
1080.9922480620146
  0
LINE
  8
_0-0_
  6
CONTINUOUS
 62
    5
 10
1188.9170117350404
 20
1079.9922480620146
 11
1189.4170117350404
 21
1080.9922480620146
  0
LINE
  8
_0-0_
  6
CONTINUOUS
 62
    5
 10
1187.9170117350404
 20
1079.9922480620146
 11
1188.9170117350404
 21
1079.9922480620146
  0
LINE
  8
_0-0_
  6
CONTINUOUS
 62
    5
 10
1187.9170117350404
 20
1106.4922480620146
 11
1187.9170117350404
 21
1079.9922480620146
  0
LINE
  8
_0-0_
  6
CONTINUOUS
 62
    5
 10
1187.4170117350404
 20
1106.4922480620146
 11
1187.9170117350404
 21
1106.4922480620146
  0
LINE
  8
_0-0_
  6
CONTINUOUS
 62
    5
 10
1187.4170117350404
 20
1108.4922480620146
 11
1187.4170117350404
 21
1106.4922480620146
  0
LINE
  8
_0-0_
  6
CONTINUOUS
 62
    5
 10
1212.4170117350404
 20
1108.4922480620146
 11
1187.4170117350404
 21
1108.4922480620146
  0
LINE
  8
_0-0_
  6
CONTINUOUS
 62
    5
 10
1212.4170117350404
 20
1106.4922480620146
 11
1212.4170117350404
 21
1108.4922480620146
  0
LINE
  8
_0-0_
  6
CONTINUOUS
 62
    5
 10
1211.9170117350404
 20
1106.4922480620146
 11
1212.4170117350404
 21
1106.4922480620146
  0
LINE
  8
_0-0_
  6
CONTINUOUS
 62
    5
 10
1211.9170117350404
 20
1079.9922480620146
 11
1211.9170117350404
 21
1106.4922480620146
  0
LINE
  8
_0-0_
  6
CONTINUOUS
 62
    5
 10
1210.9170117350404
 20
1079.9922480620146
 11
1211.9170117350404
 21
1079.9922480620146
  0
LINE
  8
_0-0_
  6
CONTINUOUS
 62
    5
 10
1210.4170117350404
 20
1080.9922480620146
 11
1210.9170117350404
 21
1079.9922480620146
  0
LINE
  8
_0-0_
  6
CONTINUOUS
 62
    5
 10
1210.9170117350404
 20
1080.9922480620146
 11
1210.4170117350404
 21
1080.9922480620146
  0
LINE
  8
_0-0_
  6
CONTINUOUS
 62
    5
 10
1210.9170117350404
 20
1093.9922480620146
 11
1210.9170117350404
 21
1080.9922480620146
  0
LINE
  8
_0-0_
  6
CONTINUOUS
 62
    5
 10
1210.4170117350404
 20
1094.9922480620146
 11
1210.9170117350404
 21
1093.9922480620146
  0
LINE
  8
_0-0_
  6
CONTINUOUS
 62
    5
 10
1210.9170117350404
 20
1094.9922480620146
 11
1210.4170117350404
 21
1094.9922480620146
  0
LINE
  8
_0-0_
  6
CONTINUOUS
 62
    5
 10
1210.9170117350404
 20
1106.4922480620146
 11
1210.9170117350404
 21
1094.9922480620146
  0
LINE
  8
_0-0_
  6
CONTINUOUS
 62
    5
 10
1208.9170117350404
 20
1106.4922480620146
 11
1210.9170117350404
 21
1106.4922480620146
  0
LINE
  8
_0-0_
  6
CONTINUOUS
 62
    5
 10
1208.9170117350404
 20
1106.9922480620146
 11
1208.9170117350404
 21
1106.4922480620146
  0
LINE
  8
_0-0_
  6
CONTINUOUS
 62
    5
 10
1210.9170117350404
 20
1106.9922480620146
 11
1208.9170117350404
 21
1106.9922480620146
  0
LINE
  8
_0-0_
  6
CONTINUOUS
 62
    5
 10
1210.9170117350404
 20
1107.9922480620146
 11
1210.9170117350404
 21
1106.9922480620146
  0
LINE
  8
_0-0_
  6
CONTINUOUS
 62
    5
 10
1199.9170117350404
 20
1109.4922480620146
 11
1212.4170117350404
 21
1109.4922480620146
  0
LINE
  8
_0-0_
  6
CONTINUOUS
 62
    5
 10
1187.4170117350404
 20
1109.4922480620146
 11
1199.9170117350404
 21
1109.4922480620146
  0
LINE
  8
_0-0_
  6
CONTINUOUS
 62
    5
 10
1186.9170117350404
 20
1109.9922480620146
 11
1187.4170117350404
 21
1109.4922480620146
  0
LINE
  8
_0-0_
  6
CONTINUOUS
 62
    5
 10
1185.9170117350404
 20
1109.9922480620146
 11
1186.9170117350404
 21
1109.9922480620146
  0
LINE
  8
_0-0_
  6
CONTINUOUS
 62
    5
 10
1185.9170117350404
 20
1106.9922480620146
 11
1185.9170117350404
 21
1109.9922480620146
  0
LINE
  8
_0-0_
  6
CONTINUOUS
 62
    5
 10
1186.4170117350404
 20
1106.9922480620146
 11
1185.9170117350404
 21
1106.9922480620146
  0
LINE
  8
_0-0_
  6
CONTINUOUS
 62
    5
 10
1186.4170117350404
 20
1091.9922480620146
 11
1186.4170117350404
 21
1106.9922480620146
  0
LINE
  8
_0-0_
  6
CONTINUOUS
 62
    5
 10
1185.9170117350332
 20
1091.9922480620146
 11
1186.4170117350404
 21
1091.9922480620146
  0
LINE
  8
_0-0_
  6
CONTINUOUS
 62
    5
 10
1185.9170117350404
 20
1089.9922480620146
 11
1185.9170117350332
 21
1091.9922480620146
  0
LINE
  8
_0-0_
  6
CONTINUOUS
 62
    5
 10
1187.4170117350404
 20
1089.9922480620146
 11
1185.9170117350404
 21
1089.9922480620146
  0
LINE
  8
_0-0_
  6
CONTINUOUS
 62
    5
 10
1187.4170117350404
 20
1108.4922480620146
 11
1187.4170117350404
 21
1089.9922480620146
  0
LINE
  8
_0-0_
  6
CONTINUOUS
 62
    5
 10
1212.4170117350404
 20
1108.4922480620146
 11
1187.4170117350404
 21
1108.4922480620146
  0
LINE
  8
_0-0_
  6
CONTINUOUS
 62
    5
 10
1212.4170117350404
 20
1089.9922480620146
 11
1212.4170117350404
 21
1108.4922480620146
  0
LINE
  8
_0-0_
  6
CONTINUOUS
 62
    5
 10
1213.9170117350404
 20
1089.9922480620146
 11
1212.4170117350404
 21
1089.9922480620146
  0
LINE
  8
_0-0_
  6
CONTINUOUS
 62
    5
 10
1213.9170117350441
 20
1091.9922480620146
 11
1213.9170117350404
 21
1089.9922480620146
  0
LINE
  8
_0-0_
  6
CONTINUOUS
 62
    5
 10
1213.4170117350404
 20
1091.9922480620146
 11
1213.9170117350441
 21
1091.9922480620146
  0
LINE
  8
_0-0_
  6
CONTINUOUS
 62
    5
 10
1213.4170117350404
 20
1106.9922480620146
 11
1213.4170117350404
 21
1091.9922480620146
  0
LINE
  8
_0-0_
  6
CONTINUOUS
 62
    5
 10
1213.9170117350404
 20
1106.9922480620146
 11
1213.4170117350404
 21
1106.9922480620146
  0
LINE
  8
_0-0_
  6
CONTINUOUS
 62
    5
 10
1213.9170117350404
 20
1109.9922480620146
 11
1213.9170117350404
 21
1106.9922480620146
  0
LINE
  8
_0-0_
  6
CONTINUOUS
 62
    5
 10
1212.9170117350404
 20
1109.9922480620146
 11
1213.9170117350404
 21
1109.9922480620146
  0
LINE
  8
_0-0_
  6
CONTINUOUS
 62
    5
 10
1212.4170117350404
 20
1109.4922480620146
 11
1212.9170117350404
 21
1109.9922480620146
  0
LINE
  8
_0-0_
  6
CONTINUOUS
 62
    5
 10
1193.1310968336475
 20
1029.9922480620146
 11
1193.1310968336475
 21
1106.4922480620146
  0
LINE
  8
_0-0_
  6
CONTINUOUS
 62
    5
 10
1196.8810968336475
 20
1029.9922480620146
 11
1196.8810968336475
 21
1106.4922480620146
  0
LINE
  8
_0-0_
  6
CONTINUOUS
 62
    5
 10
1200.6310968336475
 20
1029.9922480620146
 11
1200.6310968336475
 21
1106.4922480620146
  0
LINE
  8
_0-0_
  6
CONTINUOUS
 62
    5
 10
1204.3810968336475
 20
1029.9922480620146
 11
1204.3810968336475
 21
1106.4922480620146
  0
LINE
  8
_0-0_
  6
CONTINUOUS
 62
    5
 10
1208.1310968336475
 20
1029.9922480620146
 11
1208.1310968336475
 21
1106.4922480620146
  0
LINE
  8
_0-0_
  6
CONTINUOUS
 62
    7
 10
1213.9170117350404
 20
1109.9922480620146
 11
1521.4076835609631
 21
1109.9922480620146
  0
LINE
  8
_0-0_
  6
CONTINUOUS
 62
    7
 10
1498.2723873195755
 20
1109.9922480620146
 11
1521.4076835609631
 21
1086.8569518206234
  0
LINE
  8
_0-0_
  6
CONTINUOUS
 62
    7
 10
1491.2013195077088
 20
1109.9922480620146
 11
1521.4076835609631
 21
1079.7858840087586
  0
LINE
  8
_0-0_
  6
CONTINUOUS
 62
    7
 10
1484.1302516958422
 20
1109.9922480620146
 11
1521.4076835609631
 21
1072.7148161968937
  0
LINE
  8
_0-0_
  6
CONTINUOUS
 62
    7
 10
1185.9170117350404
 20
1109.9922480620146
 11
1029.9254991561138
 21
1109.9922480620146
  0
LINE
  8
_0-0_
  6
CONTINUOUS
 62
    7
 10
1243.7139460924154
 20
1109.9922480620146
 11
1323.7139460924191
 21
1029.9922480620146
  0
LINE
  8
_0-0_
  6
CONTINUOUS
 62
    7
 10
1236.6428782805488
 20
1109.9922480620146
 11
1316.6428782805488
 21
1029.9922480620146
  0
LINE
  8
_0-0_
  6
CONTINUOUS
 62
    7
 10
1229.5718104686857
 20
1109.9922480620146
 11
1309.5718104686857
 21
1029.9922480620128
  0
LINE
  8
_0-0_
  6
CONTINUOUS
 62
    7
 10
1029.9254991561138
 20
1029.9922480620128
 11
1523.9254991561138
 21
1029.9922480620128
  0
LINE
  8
_0-0_
  6
CONTINUOUS
 62
    5
 10
1029.9254991561138
 20
1028.9922480620128
 11
1523.9254991561138
 21
1028.9922480620128
  0
LINE
  8
_0-0_
  6
CONTINUOUS
 62
    7
 10
1258.7619907012158
 20
1012.1965430140201
 11
1358.4248154697052
 21
1184.8176191388768
  0
POINT
  8
_0-0_
 62
    7
 10
1258.7619907012158
 20
1012.1965430140201
  0
TEXT
  8
_0-0_
 62
    7
 10
1360.0522014568596
 20
1173.2479781154937
 40
30
 41
1
 50
0
  1
断熱材
  0
LINE
  8
_0-0_
  6
CONTINUOUS
 62
    7
 10
1196.9749621402716
 20
1098.2932221563162
 11
1274.6619785723196
 21
1232.8510817050621
  0
POINT
  8
_0-0_
 62
    7
 10
1196.9749621402716
 20
1098.2932221563162
  0
TEXT
  8
_0-0_
 62
    7
 10
1276.9942286372316
 20
1218.8285729555348
 40
30
 41
1
 50
0
  1
伸縮目地
  0
LINE
  8
_0-0_
  6
CONTINUOUS
 62
    7
 10
1037.9493312539107
 20
1103.3577326941006
 11
1097.3057404560896
 21
1206.1660491871219
  0
POINT
  8
_0-0_
 62
    7
 10
1037.9493312539107
 20
1103.3577326941006
  0
TEXT
  8
_0-0_
 62
    7
 10
1097.7105555997405
 20
1195.5318244817347
 40
30
 41
1
 50
0
  1
成型緩衝材
  0
LINE
  8
_0-0_
  6
CONTINUOUS
 62
    7
 10
1601.4892143859615
 20
502.14190572816483
 11
1250.5083110833766
 21
502.14190572816483
  0
LINE
  8
_0-0_
  6
CONTINUOUS
 62
    6
 10
1250.5083110833766
 20
317.64190572816483
 11
1250.5083110833766
 21
238.89190572816483
  0
LINE
  8
_0-0_
  6
CONTINUOUS
 62
    6
 10
1250.5083110833766
 20
240.36524680180742
 11
1251.9816521570119
 21
238.89190572816483
  0
LINE
  8
_0-0_
  6
CONTINUOUS
 62
    6
 10
1250.5083110833675
 20
272.18505195520379
 11
1283.8014573104101
 21
238.89190572816119
  0
LINE
  8
_0-0_
  6
CONTINUOUS
 62
    6
 10
1250.5083110833766
 20
304.00485710859471
 11
1315.6212624638029
 21
238.89190572816483
  0
LINE
  8
_0-0_
  6
CONTINUOUS
 62
    6
 10
1268.6910676172029
 20
317.64190572816119
 11
1347.4410676172029
 21
238.89190572816119
  0
LINE
  8
_0-0_
  6
CONTINUOUS
 62
    6
 10
1300.5108727705938
 20
317.64190572816119
 11
1379.2608727705938
 21
238.89190572816119
  0
LINE
  8
_0-0_
  6
CONTINUOUS
 62
    6
 10
1332.3306779239956
 20
317.64190572816483
 11
1411.0806779239956
 21
238.89190572816483
  0
LINE
  8
_0-0_
  6
CONTINUOUS
 62
    6
 10
1364.1504830773865
 20
317.64190572816119
 11
1442.9004830773792
 21
238.89190572816483
  0
LINE
  8
_0-0_
  6
CONTINUOUS
 62
    6
 10
1395.9702882307774
 20
317.64190572816119
 11
1474.7202882307774
 21
238.89190572816119
  0
LINE
  8
_0-0_
  6
CONTINUOUS
 62
    6
 10
1427.7900933841702
 20
317.64190572816483
 11
1506.5400933841702
 21
238.89190572816483
  0
LINE
  8
_0-0_
  6
CONTINUOUS
 62
    6
 10
1459.6098985375702
 20
317.64190572816119
 11
1538.3598985375702
 21
238.89190572816119
  0
LINE
  8
_0-0_
  6
CONTINUOUS
 62
    6
 10
1491.4297036909611
 20
317.64190572816119
 11
1570.1797036909611
 21
238.89190572816119
  0
LINE
  8
_0-0_
  6
CONTINUOUS
 62
    6
 10
1506.8914166733393
 20
238.89190572816483
 11
1585.6414166733393
 21
317.64190572816483
  0
LINE
  8
_0-0_
  6
CONTINUOUS
 62
    6
 10
1475.0716115199375
 20
238.89190572816483
 11
1553.8216115199375
 21
317.64190572816483
  0
LINE
  8
_0-0_
  6
CONTINUOUS
 62
    6
 10
1443.2518063665393
 20
238.89190572816119
 11
1522.0018063665393
 21
317.64190572816483
  0
LINE
  8
_0-0_
  6
CONTINUOUS
 62
    6
 10
1411.4320012131466
 20
238.89190572816483
 11
1490.1820012131466
 21
317.64190572816483
  0
LINE
  8
_0-0_
  6
CONTINUOUS
 62
    6
 10
1379.6121960597538
 20
238.89190572816483
 11
1458.3621960597538
 21
317.64190572816483
  0
LINE
  8
_0-0_
  6
CONTINUOUS
 62
    6
 10
1347.7923909063556
 20
238.89190572816483
 11
1426.5423909063556
 21
317.64190572816119
  0
LINE
  8
_0-0_
  6
CONTINUOUS
 62
    6
 10
1315.972585752972
 20
238.89190572816483
 11
1394.722585752972
 21
317.64190572816483
  0
LINE
  8
_0-0_
  6
CONTINUOUS
 62
    6
 10
1284.1527805995702
 20
238.89190572816483
 11
1362.9027805995702
 21
317.64190572816483
  0
LINE
  8
_0-0_
  6
CONTINUOUS
 62
    6
 10
1252.332975446172
 20
238.89190572816119
 11
1331.082975446172
 21
317.64190572816119
  0
LINE
  8
_0-0_
  6
CONTINUOUS
 62
    6
 10
1250.5083110833675
 20
268.88704651875491
 11
1299.2631702927793
 21
317.64190572816483
  0
LINE
  8
_0-0_
  6
CONTINUOUS
 62
    6
 10
1250.5083110833675
 20
300.70685167214947
 11
1267.4433651393865
 21
317.64190572816483
  0
LINE
  8
_0-0_
  6
CONTINUOUS
 62
    5
 10
1295.5083110833766
 20
502.14190572816483
 11
1295.5083110833766
 21
322.14190572816483
  0
LINE
  8
_0-0_
  6
CONTINUOUS
 62
    5
 10
1284.1222983364187
 20
502.14190572816483
 11
1295.5083110833766
 21
490.75589298121236
  0
LINE
  8
_0-0_
  6
CONTINUOUS
 62
    5
 10
1271.3943762750587
 20
502.14190572816301
 11
1295.5083110833766
 21
478.02797091985235
  0
LINE
  8
_0-0_
  6
CONTINUOUS
 62
    5
 10
1258.6664542137078
 20
502.14190572816483
 11
1295.5083110833766
 21
465.30004885849416
  0
LINE
  8
_0-0_
  6
CONTINUOUS
 62
    5
 10
1250.5083110833766
 20
497.57212679714144
 11
1295.5083110833766
 21
452.57212679714144
  0
LINE
  8
_0-0_
  6
CONTINUOUS
 62
    5
 10
1250.5083110833766
 20
484.84420473578507
 11
1295.5083110833766
 21
439.84420473578507
  0
LINE
  8
_0-0_
  6
CONTINUOUS
 62
    5
 10
1250.5083110833766
 20
472.1162826744287
 11
1295.5083110833766
 21
427.1162826744287
  0
LINE
  8
_0-0_
  6
CONTINUOUS
 62
    5
 10
1250.5083110833766
 20
459.3883606130687
 11
1295.5083110833766
 21
414.38836061306506
  0
LINE
  8
_0-0_
  6
CONTINUOUS
 62
    5
 10
1250.5083110833766
 20
446.66043855170687
 11
1295.5083110833766
 21
401.66043855170869
  0
LINE
  8
_0-0_
  6
CONTINUOUS
 62
    5
 10
1250.5083110833766
 20
433.93251649034869
 11
1295.5083110833766
 21
388.93251649034869
  0
LINE
  8
_0-0_
  6
CONTINUOUS
 62
    5
 10
1250.5083110833766
 20
421.2045944289905
 11
1295.5083110833766
 21
376.20459442899232
  0
LINE
  8
_0-0_
  6
CONTINUOUS
 62
    5
 10
1250.5083110833766
 20
408.47667236763596
 11
1295.5083110833766
 21
363.47667236763778
  0
LINE
  8
_0-0_
  6
CONTINUOUS
 62
    5
 10
1250.5083110833766
 20
395.74875030627595
 11
1295.5083110833766
 21
350.74875030627777
  0
LINE
  8
_0-0_
  6
CONTINUOUS
 62
    5
 10
1250.5083110833766
 20
383.0208282449214
 11
1295.5083110833766
 21
338.0208282449214
  0
LINE
  8
_0-0_
  6
CONTINUOUS
 62
    5
 10
1250.5083110833766
 20
370.29290618356504
 11
1295.5083110833766
 21
325.29290618356504
  0
LINE
  8
_0-0_
  6
CONTINUOUS
 62
    5
 10
1250.5083110833766
 20
357.56498412220503
 11
1285.9313894774114
 21
322.14190572816483
  0
LINE
  8
_0-0_
  6
CONTINUOUS
 62
    5
 10
1250.5083110833766
 20
344.83706206084503
 11
1273.2034674160514
 21
322.14190572816483
  0
LINE
  8
_0-0_
  6
CONTINUOUS
 62
    5
 10
1250.5083110833766
 20
332.10913999948502
 11
1260.4755453546913
 21
322.14190572816119
  0
LINE
  8
_0-0_
  6
CONTINUOUS
 62
    5
 10
1295.5083110833766
 20
502.14190572816483
 11
1250.5083110833766
 21
502.14190572816483
  0
LINE
  8
_0-0_
  6
CONTINUOUS
 62
    7
 10
1237.0083110833766
 20
216.39190572816483
 11
1237.0083110833766
 21
522.14190572816483
  0
LINE
  8
_0-0_
  6
CONTINUOUS
 62
    4
 10
1250.5083110833766
 20
522.14190572816483
 11
1250.5083110833766
 21
236.64190572816483
  0
LINE
  8
_0-0_
  6
CONTINUOUS
 62
    7
 10
1197.0083110833766
 20
417.01146993958287
 11
1237.0083110833766
 21
457.01146993958287
  0
LINE
  8
_0-0_
  6
CONTINUOUS
 62
    7
 10
1197.0083110833766
 20
401.10156736288377
 11
1237.0083110833766
 21
441.10156736288377
  0
LINE
  8
_0-0_
  6
CONTINUOUS
 62
    7
 10
1197.0083110833766
 20
385.19166478618649
 11
1237.0083110833766
 21
425.19166478618649
  0
LINE
  8
_0-0_
  6
CONTINUOUS
 62
    7
 10
1465.5056293262714
 20
176.39190572816483
 11
1505.5056293262733
 21
216.39190572816665
  0
LINE
  8
_0-0_
  6
CONTINUOUS
 62
    7
 10
1481.4155319029705
 20
176.39190572816483
 11
1521.4155319029705
 21
216.39190572816483
  0
LINE
  8
_0-0_
  6
CONTINUOUS
 62
    7
 10
1497.3254344796696
 20
176.39190572816483
 11
1537.3254344796696
 21
216.39190572816483
  0
LINE
  8
_0-0_
  6
CONTINUOUS
 62
    7
 10
1295.5083110833766
 20
457.28200153767216
 11
1430.6484068928876
 21
322.14190572816119
  0
LINE
  8
_0-0_
  6
CONTINUOUS
 62
    7
 10
1295.508311083373
 20
473.19190411437307
 11
1446.5583094695867
 21
322.14190572815937
  0
LINE
  8
_0-0_
  6
CONTINUOUS
 62
    7
 10
1295.5083110833766
 20
489.10180669106671
 11
1462.4682120462821
 21
322.14190572816119
  0
LINE
  8
_0-0_
  6
CONTINUOUS
 62
    7
 10
1237.0083110833766
 20
216.39190572816483
 11
1601.4892143859615
 21
216.39190572816483
  0
LINE
  8
_0-0_
  6
CONTINUOUS
 62
    6
 10
1555.0693139977539
 20
317.64190572816119
 11
1601.4892143859615
 21
271.22200533995169
  0
LINE
  8
_0-0_
  6
CONTINUOUS
 62
    6
 10
1570.5310269801212
 20
238.89190572816483
 11
1601.4892143859615
 21
269.85009313400519
  0
LINE
  8
_0-0_
  6
CONTINUOUS
 62
    6
 10
1250.5083110833766
 20
238.89190572816483
 11
1601.4892143859615
 21
238.89190572816483
  0
LINE
  8
_0-0_
  6
CONTINUOUS
 62
    6
 10
1523.2495088443629
 20
317.64190572816483
 11
1601.4892143859615
 21
239.40220018656623
  0
LINE
  8
_0-0_
  6
CONTINUOUS
 62
    4
 10
1250.5083110833766
 20
236.64190572816483
 11
1601.4892143859615
 21
236.64190572816483
  0
LINE
  8
_0-0_
  6
CONTINUOUS
 62
    6
 10
1538.711221826723
 20
238.89190572816483
 11
1601.4892143859615
 21
301.66989828739975
  0
LINE
  8
_0-0_
  6
CONTINUOUS
 62
    6
 10
1586.8891191511448
 20
317.64190572816483
 11
1601.4892143859615
 21
303.04181049334807
  0
LINE
  8
_0-0_
  6
CONTINUOUS
 62
    6
 10
1250.5083110833766
 20
317.64190572816483
 11
1601.4892143859615
 21
317.64190572816483
  0
LINE
  8
_0-0_
  6
CONTINUOUS
 62
    5
 10
1250.5083110833766
 20
319.89190572816119
 11
1601.4892143859615
 21
319.89190572816119
  0
LINE
  8
_0-0_
  6
CONTINUOUS
 62
    7
 10
1250.5083110833766
 20
322.14190572816119
 11
1601.4892143859615
 21
322.14190572816119
  0
LINE
  8
_0-0_
  6
CONTINUOUS
 62
    7
 10
1575.9915331316843
 20
216.39190572816483
 11
1618.789643074957
 21
290.52040661783144
  0
POINT
  8
_0-0_
 62
    7
 10
1575.9915331316843
 20
216.39190572816483
  0
TEXT
  8
_0-0_
 62
    7
 10
1621.4082534941208
 20
282.26749780923387
 40
21.617968000000001
 41
1
 50
0
  1
ﾌﾟﾗｲﾏｰ
  0
LINE
  8
_0-0_
  6
CONTINUOUS
 62
    7
 10
1512.8323997189527
 20
237.8651806277187
 11
1582.034521827336
 21
357.72677211102496
  0
POINT
  8
_0-0_
 62
    7
 10
1512.8323997189527
 20
237.8651806277187
  0
TEXT
  8
_0-0_
 62
    7
 10
1586.1471360798187
 20
351.0052058759677
 40
21.617968000000001
 41
1
 50
0
  1
ｳﾚﾀﾝ防水
  0
LINE
  8
_0-0_
  6
CONTINUOUS
 62
    7
 10
1480.7262499125573
 20
319.89190572816119
 11
1526.5196017161325
 21
399.208317700831
  0
POINT
  8
_0-0_
 62
    7
 10
1480.7262499125573
 20
319.89190572816119
  0
TEXT
  8
_0-0_
 62
    7
 10
1528.9588635399541
 20
390.15736211385524
 40
21.617968000000001
 41
1
 50
0
  1
絶縁ﾌｨﾙﾑ
  0
LINE
  8
_0-0_
  6
CONTINUOUS
 62
    7
 10
1459.632490821592
 20
433.23513917559217
 11
1509.6250757813177
 21
519.82483632754088
  0
POINT
  8
_0-0_
 62
    7
 10
1459.632490821592
 20
433.23513917559217
  0
TEXT
  8
_0-0_
 62
    7
 10
1513.5077254628286
 20
510.07358858194607
 40
21.617968000000001
 41
1
 50
0
  1
保護ｺﾝｸﾘｰﾄ
  0
TEXT
  8
_0-0_
 62
    7
 10
1361.5972277859
 20
508.30718744616684
 40
21.617968000000001
 41
1
 50
0
  1
成型緩衝材
  0
LINE
  8
_0-0_
  6
CONTINUOUS
 62
    7
 10
1360.5105723101206
 20
517.97082678080847
 11
1287.441307731262
 21
391.41114805853181
  0
POINT
  8
_0-0_
 62
    7
 10
1287.441307731262
 20
391.41114805853181
  0
LINE
  8
_0-0_
  6
CONTINUOUS
 62
    7
 10
1250.5083110833766
 20
513.26219141923616
 11
1264.2368512578869
 21
537.04072051523804
  0
TEXT
  8
_0-0_
 62
    7
 10
1263.880626184904
 20
537.10880119022045
 40
21.617968000000001
 41
1
 50
0
  1
ﾄｯﾌﾟｺｰﾄ(露出部のみ)
  0
POINT
  8
_0-0_
 62
    7
 10
1250.5083110833766
 20
513.26219141923616
  0
LINE
  8
_0-0_
  6
CONTINUOUS
 62
    7
 10
672.13606690525205
 20
1553.3565543671132
 11
1706.8525777203686
 21
1553.3565543671132
  0
LINE
  8
_0-0_
  6
CONTINUOUS
 62
    7
 10
672.13606690525205
 20
1633.3565543671132
 11
1706.8525777203686
 21
1633.3565543671132
  0
LINE
  8
_0-0_
  6
CONTINUOUS
 62
    7
 10
672.13606690525205
 20
1473.3565543671132
 11
1706.8525777203686
 21
1473.3565543671132
  0
LINE
  8
_0-0_
  6
CONTINUOUS
 62
    7
 10
1189.4943223128103
 20
1633.3565543671132
 11
1189.4943223128103
 21
1473.3565543671132
  0
TEXT
  8
_0-0_
 62
    7
 10
1213.4943223128103
 20
1577.3565543671132
 40
20
 41
1
 50
0
  1
構造：ＲＣ造
  0
TEXT
  8
_0-0_
 62
    7
 10
1213.4943223128103
 20
1497.3565543671132
 40
20
 41
1
 50
0
  1
下地：コンクリートスラブ
  0
TEXT
  8
_0-0_
 62
    7
 10
696.13606690525205
 20
1577.3565543671132
 40
20
 41
1
 50
0
  1
図面番号：UPM-10CF-kabe-02
  0
TEXT
  8
_0-0_
 62
    7
 10
696.13606690525216
 20
1497.3565543671132
 40
20
 41
1
 50
0
  1
施工部位：壁面立上り（目地切り）
  0
ENDSEC
  0
EOF
