  0
SECTION
  2
HEADER
  9
$ACADVER
  1
AC1009
  9
$INSBASE
 10
0
 20
0
 30
0
  9
$EXTMIN
 10
0
 20
0
  9
$EXTMAX
 10
2378
 20
1682
  9
$LIMMIN
 10
0
 20
0
  9
$LIMMAX
 10
2378
 20
1682
  9
$LTSCALE
 40
1
  0
ENDSEC
  0
SECTION
  2
TABLES
  0
TABLE
  2
LTYPE
 70
     9
  0
LTYPE
  2
CONTINUOUS
 70
    64
  3
実線
 72
    65
 73
     0
 40
0.0
  0
LTYPE
  2
DASHED1
 70
    64
  3
--  --  --  --  --  --  --  --  
 72
    65
 73
     2
 40
2.5
 49
1.25
 49
-1.25
  0
LTYPE
  2
DASHED2
 70
    64
  3
----    ----    ----    ----    
 72
    65
 73
     2
 40
5.0
 49
2.5
 49
-2.5
  0
LTYPE
  2
DASHED3
 70
    64
  3
------  ------  ------  ------  
 72
    65
 73
     2
 40
5.0
 49
3.75
 49
-1.25
  0
LTYPE
  2
CENTER1
 70
    64
  3
----- - ----- - ----- - ----- - 
 72
    65
 73
     4
 40
10.0
 49
6.25
 49
-1.25
 49
1.25
 49
-1.25
  0
LTYPE
  2
CENTER2
 70
    64
  3
----------  --  ----------  --  
 72
    65
 73
     4
 40
20.0
 49
12.5
 49
-2.5
 49
2.5
 49
-2.5
  0
LTYPE
  2
PHANTOM1
 70
    64
  3
--- - - --- - - --- - - --- - - 
 72
    65
 73
     6
 40
10.0
 49
3.25
 49
-1.25
 49
1.25
 49
-1.25
 49
1.25
 49
-1.25
  0
LTYPE
  2
PHANTOM2
 70
    64
  3
--------  -  -  --------  -  -  
 72
    65
 73
     6
 40
20.0
 49
10.0
 49
-2.5
 49
1.25
 49
-2.5
 49
1.25
 49
-2.5
  0
LTYPE
  2
DOT
 70
    64
  3
-   -   -   -   -   -   -   -   
 72
    65
 73
     2
 40
2.5
 49
0.625
 49
-1.875
  0
LTYPE
  2
DUMMY
 70
    64
  3
ダミー
 72
    65
 73
     0
 40
0.0
  0
LTYPE
  2
RAND1
 70
    64
  3
ランダム線1
 72
    65
 73
     4
 40
10.0
 49
1.0
 49
-2.0
 49
3.0
 49
-4.0
  0
LTYPE
  2
RAND2
 70
    64
  3
ランダム線2
 72
    65
 73
     4
 40
14.0
 49
2.0
 49
-3.0
 49
4.0
 49
-5.0
  0
LTYPE
  2
RAND3
 70
    64
  3
ランダム線3
 72
    65
 73
     4
 40
18.0
 49
3.0
 49
-4.0
 49
5.0
 49
-6.0
  0
LTYPE
  2
RAND4
 70
    64
  3
ランダム線4
 72
    65
 73
     4
 40
22.0
 49
4.0
 49
-5.0
 49
6.0
 49
-7.0
  0
LTYPE
  2
RAND5
 70
    64
  3
ランダム線5
 72
    65
 73
     4
 40
26.0
 49
5.0
 49
-6.0
 49
7.0
 49
-8.0
  0
LTYPE
  2
LONG1
 70
    64
  3
----------  --  ----------  --  
 72
    65
 73
     4
 40
40.0
 49
32.5
 49
-2.5
 49
2.5
 49
-2.5
  0
LTYPE
  2
LONG2
 70
    64
  3
--------  -  -  --------  -  -  
 72
    65
 73
     6
 40
40.0
 49
30.0
 49
-2.5
 49
1.25
 49
-2.5
 49
1.25
 49
-2.5
  0
LTYPE
  2
LONG3
 70
    64
  3
+++++++++++++++..+++++++++++++++
 72
    65
 73
     2
 40
40.0
 49
37.5
 49
-2.5
  0
LTYPE
  2
LONG4
 70
    64
  3
+++++++++++++++..+++++++++++++++
 72
    65
 73
     2
 40
80.0
 49
75.0
 49
-5.0
  0
LTYPE
  2
LONG5
 70
    64
  3
----------  --  ----------  --  
 72
    65
 73
     4
 40
60.0
 49
37.5
 49
-7.5
 49
7.5
 49
-7.5
  0
LTYPE
  2
dashed
 70
   64
  3
-------   -------------   ------
 72
   65
 73
    2
 40
7.5
 49
6
 49
-1.5
  0
LTYPE
  2
dashed_spaced
 70
   64
  3
----        --------        ----
 72
   65
 73
    2
 40
12
 49
6
 49
-6
  0
LTYPE
  2
long_dashed_dotted
 70
   64
  3
------------- --- --------------
 72
   65
 73
    4
 40
15.25
 49
12
 49
-1.5
 49
0.25
 49
-1.5
  0
LTYPE
  2
long_dashed_double-dotted
 70
   64
  3
----------- --- --- ------------
 72
   65
 73
    6
 40
17
 49
12
 49
-1.5
 49
0.25
 49
-1.5
 49
0.25
 49
-1.5
  0
LTYPE
  2
long_dashed_triplicate-dotted
 70
   64
  3
--------- --- --- --- ----------
 72
   65
 73
    8
 40
18.75
 49
12
 49
-1.5
 49
0.25
 49
-1.5
 49
0.25
 49
-1.5
 49
0.25
 49
-1.5
  0
LTYPE
  2
dotted
 70
   64
  3
   -       -       -       -    
 72
   65
 73
    2
 40
1.75
 49
0.25
 49
-1.5
  0
LTYPE
  2
chain
 70
   64
  3
-------------- -- --------------
 72
   65
 73
    4
 40
18.5
 49
12
 49
-1.5
 49
3.5
 49
-1.5
  0
LTYPE
  2
chain_double_dash
 70
   64
  3
------------ -- -- -------------
 72
   65
 73
    6
 40
23.5
 49
12
 49
-1.5
 49
3.5
 49
-1.5
 49
3.5
 49
-1.5
  0
LTYPE
  2
dashed_dotted
 70
   64
  3
-----------     -     ----------
 72
   65
 73
    4
 40
9.25
 49
6
 49
-1.5
 49
0.25
 49
-1.5
  0
LTYPE
  2
double-dashed_dotted
 70
   64
  3
------   -----------   -   -----
 72
   65
 73
    6
 40
16.75
 49
6
 49
-1.5
 49
6
 49
-1.5
 49
0.25
 49
-1.5
  0
LTYPE
  2
dashed_double-dotted
 70
   64
  3
---------    -    -    ---------
 72
   65
 73
    6
 40
11
 49
6
 49
-1.5
 49
0.25
 49
-1.5
 49
0.25
 49
-1.5
  0
LTYPE
  2
double-dashed_double-dotted
 70
   64
  3
-----   ---------   -   -   ----
 72
   65
 73
    8
 40
18.5
 49
6
 49
-1.5
 49
6
 49
-1.5
 49
0.25
 49
-1.5
 49
0.25
 49
-1.5
  0
LTYPE
  2
dashed_triplicate-dotted
 70
   64
  3
-------    -    -    -    ------
 72
   65
 73
    8
 40
12.75
 49
6
 49
-1.5
 49
0.25
 49
-1.5
 49
0.25
 49
-1.5
 49
0.25
 49
-1.5
  0
LTYPE
  2
double-dashed_triplicate-dotted
 70
   64
  3
-----  ---------  -  -  -  -----
 72
   65
 73
   10
 40
20.25
 49
6
 49
-1.5
 49
6
 49
-1.5
 49
0.25
 49
-1.5
 49
0.25
 49
-1.5
 49
0.25
 49
-1.5
  0
LTYPE
  2
undefined
 70
   64
  3
--------------------------------
 72
   65
 73
    0
 40
0
  0
ENDTAB
  0
TABLE
  2
STYLE
  5
3
100
AcDbSymbolTable
 70
     1
  0
STYLE
  5
10
100
AcDbSymbolTableRecord
100
AcDbTextStyleTableRecord
  2
STANDARD
 70
     0
 40
0.0
 41
1.0
 50
0.0
 71
     0
 42
0.2
  3
txt
  4
bigfont.shx
  0
STYLE
  5
26
100
AcDbSymbolTableRecord
100
AcDbTextStyleTableRecord
  2
TATEGAKI
 70
    68
 40
0.0
 41
1.0
 50
0.0
 71
     0
 42
1.0
  3
txt
  4
bigfont.shx
  0
ENDTAB
  0
TABLE
  2
LAYER
 70
    2
  0
LAYER
  2
_0-0_
 70
   64
 62
    7
  6
CONTINUOUS
  0
LAYER
  2
ADD_LINE
 70
   64
 62
    7
  6
CONTINUOUS
  0
ENDTAB
  0
ENDSEC
  0
SECTION
  2
BLOCKS
  0
ENDSEC
  0
SECTION
  2
ENTITIES
  0
LINE
  8
_0-0_
  6
CONTINUOUS
 62
    6
 10
1029.925499156112
 20
992.99224806201642
 11
1523.925499156112
 21
992.99224806201642
  0
LINE
  8
_0-0_
  6
CONTINUOUS
 62
    7
 10
917.5198203743895
 20
227.59427433902351
 11
917.5198203743895
 21
370.74005731514922
  0
LINE
  8
_0-0_
  6
CONTINUOUS
 62
    7
 10
672.13606690525205
 20
567.53106997205509
 11
1706.8525777203668
 21
567.53106997205509
  0
LINE
  8
_0-0_
  6
CONTINUOUS
 62
    7
 10
672.13606690525205
 20
167.53106997205509
 11
1706.8525777203668
 21
167.53106997205509
  0
LINE
  8
_0-0_
  6
CONTINUOUS
 62
    7
 10
672.13606690525205
 20
627.53106997205509
 11
1706.8525777203668
 21
627.53106997205509
  0
LINE
  8
_0-0_
  6
CONTINUOUS
 62
    7
 10
1189.4943223128103
 20
627.53106997205509
 11
1189.4943223128103
 21
167.53106997205509
  0
LINE
  8
_0-0_
  6
CONTINUOUS
 62
    7
 10
672.13606690525205
 20
1633.3565543671132
 11
672.13606690525205
 21
167.53106997205509
  0
LINE
  8
_0-0_
  6
CONTINUOUS
 62
    7
 10
1706.8525777203668
 20
1633.3565543671132
 11
1706.8525777203668
 21
167.53106997205509
  0
TEXT
  8
_0-0_
 62
    7
 10
906.73245032900388
 20
575.67973412101242
 40
40
 41
1
 50
0
  1
Ａ
  0
TEXT
  8
_0-0_
 62
    7
 10
1429.6891920142098
 20
576.02721287347708
 40
40
 41
1
 50
0
  1
Ｂ
  0
LINE
  8
_0-0_
  6
CONTINUOUS
 62
    7
 10
873.92549915611391
 20
1006.1250019062038
 11
1023.9254991561121
 21
1156.125001906202
  0
LINE
  8
_0-0_
  6
CONTINUOUS
 62
    7
 10
963.42404853958408
 20
1440.9858702173563
 11
954.24684853958399
 21
1427.8794702173557
  0
LINE
  8
_0-0_
  6
CONTINUOUS
 62
    7
 10
963.42404853958408
 20
1440.9858702173563
 11
961.03894853958457
 21
1434.432670217356
  0
LINE
  8
_0-0_
  6
CONTINUOUS
 62
    7
 10
954.24684853958399
 20
1427.8794702173539
 11
956.63194853958532
 21
1434.432670217356
  0
LINE
  8
_0-0_
  6
CONTINUOUS
 62
    7
 10
860.77661825290318
 20
1434.432670217356
 11
956.63194853958532
 21
1434.432670217356
  0
LINE
  8
_0-0_
  6
CONTINUOUS
 62
    7
 10
961.03894853958457
 20
1434.432670217356
 11
1057.4345825254313
 21
1434.432670217356
  0
LINE
  8
_0-0_
  6
CONTINUOUS
 62
    7
 10
873.9254991561121
 20
1434.432670217356
 11
873.9254991561121
 21
772.99224806201642
  0
LINE
  8
_0-0_
  6
CONTINUOUS
 62
    7
 10
873.9254991561121
 20
1246.5413075096269
 11
1043.925499156112
 21
1416.5413075096251
  0
LINE
  8
_0-0_
  6
CONTINUOUS
 62
    7
 10
873.9254991561121
 20
1239.4702396977621
 11
1043.925499156112
 21
1409.4702396977621
  0
LINE
  8
_0-0_
  6
CONTINUOUS
 62
    7
 10
873.92549915611391
 20
1232.3991718858972
 11
1043.925499156112
 21
1402.399171885899
  0
LINE
  8
_0-0_
  6
CONTINUOUS
 62
    7
 10
962.5198203743895
 20
370.74005731514922
 11
917.5198203743895
 21
370.74005731514922
  0
LINE
  8
_0-0_
  6
CONTINUOUS
 62
    7
 10
923.97112422497059
 20
370.74005731514922
 11
962.5198203743895
 21
409.2887534645663
  0
ARC
  8
_0-0_
  6
CONTINUOUS
 62
    2
 10
1013.4332300829702
 20
288.32664760656849
 40
96.871798723612699
 50
121.70696983898064
 51
148.29303016101935
  0
LINE
  8
_0-0_
  6
CONTINUOUS
 62
    2
 10
931.0198203743895
 20
339.98798819511035
 11
932.32236826034762
 21
341.29053608107029
  0
LINE
  8
_0-0_
  6
CONTINUOUS
 62
    2
 10
960.46934160846843
 20
369.4375094291911
 11
961.77188949442836
 21
370.74005731514922
  0
LINE
  8
_0-0_
  6
CONTINUOUS
 62
    2
 10
931.01982037438768
 20
346.35194922579035
 11
955.40792846374654
 21
370.7400573151474
  0
LINE
  8
_0-0_
  6
CONTINUOUS
 62
    2
 10
931.01982037439132
 20
352.71591025646853
 11
949.04396743307018
 21
370.7400573151474
  0
LINE
  8
_0-0_
  6
CONTINUOUS
 62
    2
 10
931.01982037439132
 20
359.07987128714853
 11
942.680006402392
 21
370.74005731514922
  0
LINE
  8
_0-0_
  6
CONTINUOUS
 62
    2
 10
931.0198203743895
 20
365.44383231782672
 11
936.31604537171199
 21
370.74005731514922
  0
LINE
  8
_0-0_
  6
CONTINUOUS
 62
    7
 10
749.00553609545398
 20
227.59427433902351
 11
962.5198203743895
 21
441.10855861795903
  0
LINE
  8
_0-0_
  6
CONTINUOUS
 62
    7
 10
764.91543867215125
 20
227.59427433902351
 11
962.5198203743895
 21
425.19865604126358
  0
LINE
  8
_0-0_
  6
CONTINUOUS
 62
    7
 10
780.82534124884671
 20
227.59427433902351
 11
917.5198203743895
 21
364.2887534645663
  0
LINE
  8
_0-0_
  6
CONTINUOUS
 62
    4
 10
931.0198203743895
 20
370.74005731514922
 11
931.0198203743895
 21
227.59427433902351
  0
LINE
  8
_0-0_
  6
CONTINUOUS
 62
    7
 10
962.5198203743895
 20
370.74005731514922
 11
962.5198203743895
 21
515.65563591888281
  0
LINE
  8
_0-0_
  6
CONTINUOUS
 62
    7
 10
942.79811433799671
 20
361.98705854438526
 11
1004.3614497458167
 21
468.61788335413189
  0
POINT
  8
_0-0_
 62
    7
 10
942.79811433799671
 20
361.98705854438526
  0
TEXT
  8
_0-0_
 62
    7
 10
1007.085024193808
 20
459.52581832561486
 40
21.617968000000001
 41
1
 50
0
  1
ｼｰﾘﾝｸﾞ
  0
LINE
  8
_0-0_
  6
CONTINUOUS
 62
    7
 10
1223.925499156112
 20
802.99224806201642
 11
1523.925499156112
 21
802.99224806201642
  0
LINE
  8
_0-0_
  6
CONTINUOUS
 62
    7
 10
1223.925499156112
 20
802.99224806201642
 11
1223.925499156112
 21
772.99224806201642
  0
LINE
  8
_0-0_
  6
CONTINUOUS
 62
    7
 10
1079.198949647589
 20
772.99224806201642
 11
1289.198949647589
 21
982.99224806201642
  0
LINE
  8
_0-0_
  6
CONTINUOUS
 62
    7
 10
1086.270017459452
 20
772.99224806201642
 11
1296.270017459452
 21
982.99224806201642
  0
LINE
  8
_0-0_
  6
CONTINUOUS
 62
    7
 10
1093.3410852713168
 20
772.99224806201642
 11
1303.3410852713187
 21
982.99224806201642
  0
LINE
  8
_0-0_
  6
CONTINUOUS
 62
    7
 10
873.92549915611391
 20
779.85083192650677
 11
1077.0669152916234
 21
982.99224806201642
  0
LINE
  8
_0-0_
  6
CONTINUOUS
 62
    7
 10
873.9254991561121
 20
786.92189973837162
 11
1069.9958474797568
 21
982.99224806201642
  0
LINE
  8
_0-0_
  6
CONTINUOUS
 62
    7
 10
873.9254991561121
 20
793.99296755023647
 11
1062.9247796678919
 21
982.99224806201642
  0
CIRCLE
  8
_0-0_
  6
DASHED2
 62
    1
 10
1029.925499156112
 20
1033.3316468477308
 40
80
  0
TEXT
  8
_0-0_
 62
    7
 10
988.80137739395116
 20
1095.061746710476
 40
24
 41
1
 50
0
  1
Ｂ
  0
LINE
  8
_0-0_
  6
CONTINUOUS
 62
    7
 10
1023.9254991561121
 20
982.99224806201642
 11
1523.925499156112
 21
982.99224806201642
  0
LINE
  8
_0-0_
  6
CONTINUOUS
 62
    7
 10
1335.4731196272824
 20
802.99224806201642
 11
1515.4731196272824
 21
982.99224806201642
  0
LINE
  8
_0-0_
  6
CONTINUOUS
 62
    7
 10
1342.544187439149
 20
802.99224806201642
 11
1522.5441874391472
 21
982.99224806201642
  0
LINE
  8
_0-0_
  6
CONTINUOUS
 62
    7
 10
1349.6152552510102
 20
802.99224806201642
 11
1523.9254991561138
 21
977.30249196711634
  0
ARC
  8
_0-0_
  6
CONTINUOUS
 62
    2
 10
1066.5536812488135
 20
1159.0228767498295
 40
43.054132766050088
 50
121.70696983898064
 51
148.29303016101935
  0
LINE
  8
_0-0_
  6
CONTINUOUS
 62
    2
 10
1029.9254991561102
 20
1181.9834725669582
 11
1030.5044093276483
 21
1182.5623827384964
  0
LINE
  8
_0-0_
  6
CONTINUOUS
 62
    2
 10
1043.0141752601467
 20
1195.0721486709947
 11
1043.593085431683
 21
1195.651058842531
  0
LINE
  8
_0-0_
  6
CONTINUOUS
 62
    2
 10
1029.9254991561102
 20
1184.8118996917049
 11
1040.7646583069363
 21
1195.651058842531
  0
LINE
  8
_0-0_
  6
CONTINUOUS
 62
    2
 10
1029.925499156112
 20
1187.6403268164515
 11
1037.9362311821915
 21
1195.651058842531
  0
LINE
  8
_0-0_
  6
CONTINUOUS
 62
    2
 10
1029.925499156112
 20
1190.4687539411982
 11
1035.1078040574466
 21
1195.651058842531
  0
LINE
  8
_0-0_
  6
CONTINUOUS
 62
    2
 10
1029.9254991561102
 20
1193.2971810659449
 11
1032.2793769327
 21
1195.651058842531
  0
LINE
  8
_0-0_
  6
CONTINUOUS
 62
    7
 10
1023.9254991561121
 20
1195.651058842531
 11
1043.925499156112
 21
1195.651058842531
  0
LINE
  8
_0-0_
  6
CONTINUOUS
 62
    7
 10
1023.9254991561121
 20
982.99224806201642
 11
1023.9254991561121
 21
1195.651058842531
  0
LINE
  8
_0-0_
  6
CONTINUOUS
 62
    4
 10
1029.925499156112
 20
991.99224806201642
 11
1029.925499156112
 21
1195.651058842531
  0
LINE
  8
_0-0_
  6
CONTINUOUS
 62
    7
 10
873.9254991561121
 20
1013.1960697180668
 11
1023.9254991561121
 21
1163.1960697180668
  0
LINE
  8
_0-0_
  6
CONTINUOUS
 62
    7
 10
1043.925499156112
 20
1195.6510588425328
 11
1043.925499156112
 21
1434.432670217356
  0
LINE
  8
_0-0_
  6
CONTINUOUS
 62
    7
 10
873.9254991561121
 20
1020.2671375299317
 11
1023.9254991561121
 21
1170.2671375299317
  0
POINT
  8
_0-0_
 62
    7
 10
1337.1185834863518
 20
987.32039321624984
  0
LINE
  8
_0-0_
  6
CONTINUOUS
 62
    7
 10
1337.1185834863518
 20
987.32039321624984
 11
1430.4565639073244
 21
1148.9865175812422
  0
TEXT
  8
_0-0_
 62
    7
 10
1434.9264839000698
 20
1136.8791128179175
 40
30
 41
1
 50
0
  1
防水層
  0
LINE
  8
_0-0_
  6
CONTINUOUS
 62
    4
 10
1029.925499156112
 20
991.99224806201642
 11
1523.925499156112
 21
991.99224806201642
  0
LINE
  8
_0-0_
  6
CONTINUOUS
 62
    7
 10
1521.4076835609612
 20
1027.9922480620164
 11
1029.925499156112
 21
1027.9922480620164
  0
LINE
  8
_0-0_
  6
CONTINUOUS
 62
    6
 10
1490.5550642416474
 20
1027.9922480620164
 11
1523.925499156112
 21
994.62181314755367
  0
LINE
  8
_0-0_
  6
CONTINUOUS
 62
    6
 10
1504.6971998653771
 20
1027.9922480620164
 11
1523.925499156112
 21
1008.7639487712834
  0
LINE
  8
_0-0_
  6
CONTINUOUS
 62
    6
 10
1511.5690723019852
 20
992.99224806201642
 11
1523.925499156112
 21
1005.3486749161395
  0
LINE
  8
_0-0_
  6
CONTINUOUS
 62
    6
 10
1518.8393354891105
 20
1027.9922480620164
 11
1523.925499156112
 21
1022.9060843950149
  0
LINE
  8
_0-0_
  6
CONTINUOUS
 62
    6
 10
1497.4269366782519
 20
992.99224806201642
 11
1523.925499156112
 21
1019.4908105398711
  0
LINE
  8
_0-0_
  6
CONTINUOUS
 62
    6
 10
1029.925499156112
 20
1027.9922480620164
 11
1029.925499156112
 21
992.99224806201642
  0
LINE
  8
_0-0_
  6
CONTINUOUS
 62
    6
 10
1029.925499156112
 20
993.64706631696868
 11
1030.5803174110606
 21
992.99224806201642
  0
LINE
  8
_0-0_
  6
CONTINUOUS
 62
    6
 10
1029.9254991561083
 20
1007.7892019407002
 11
1044.7224530347939
 21
992.9922480620146
  0
LINE
  8
_0-0_
  6
CONTINUOUS
 62
    6
 10
1029.925499156112
 20
1021.9313375644299
 11
1058.8645886585236
 21
992.99224806201642
  0
LINE
  8
_0-0_
  6
CONTINUOUS
 62
    6
 10
1038.006724282257
 20
1027.9922480620146
 11
1073.006724282257
 21
992.9922480620146
  0
LINE
  8
_0-0_
  6
CONTINUOUS
 62
    6
 10
1052.1488599059867
 20
1027.9922480620146
 11
1087.1488599059867
 21
992.9922480620146
  0
LINE
  8
_0-0_
  6
CONTINUOUS
 62
    6
 10
1066.29099552972
 20
1027.9922480620164
 11
1101.29099552972
 21
992.99224806201642
  0
LINE
  8
_0-0_
  6
CONTINUOUS
 62
    6
 10
1080.4331311534497
 20
1027.9922480620146
 11
1115.4331311534461
 21
992.99224806201642
  0
LINE
  8
_0-0_
  6
CONTINUOUS
 62
    6
 10
1094.5752667771794
 20
1027.9922480620146
 11
1129.5752667771794
 21
992.9922480620146
  0
LINE
  8
_0-0_
  6
CONTINUOUS
 62
    6
 10
1108.7174024009091
 20
1027.9922480620164
 11
1143.7174024009091
 21
992.99224806201642
  0
LINE
  8
_0-0_
  6
CONTINUOUS
 62
    6
 10
1122.8595380246425
 20
1027.9922480620146
 11
1157.8595380246425
 21
992.9922480620146
  0
LINE
  8
_0-0_
  6
CONTINUOUS
 62
    6
 10
1137.0016736483722
 20
1027.9922480620146
 11
1172.0016736483722
 21
992.9922480620146
  0
LINE
  8
_0-0_
  6
CONTINUOUS
 62
    6
 10
1151.1438092721055
 20
1027.9922480620164
 11
1186.1438092721055
 21
992.99224806201642
  0
LINE
  8
_0-0_
  6
CONTINUOUS
 62
    6
 10
1165.2859448958352
 20
1027.9922480620146
 11
1200.2859448958316
 21
992.99224806201642
  0
LINE
  8
_0-0_
  6
CONTINUOUS
 62
    6
 10
1179.4280805195649
 20
1027.9922480620164
 11
1214.4280805195649
 21
992.99224806201642
  0
LINE
  8
_0-0_
  6
CONTINUOUS
 62
    6
 10
1193.5702161432946
 20
1027.9922480620164
 11
1228.5702161432946
 21
992.99224806201642
  0
LINE
  8
_0-0_
  6
CONTINUOUS
 62
    6
 10
1207.7123517670279
 20
1027.9922480620146
 11
1242.7123517670279
 21
992.99224806201642
  0
LINE
  8
_0-0_
  6
CONTINUOUS
 62
    6
 10
1221.8544873907576
 20
1027.9922480620164
 11
1256.8544873907576
 21
992.99224806201642
  0
LINE
  8
_0-0_
  6
CONTINUOUS
 62
    6
 10
1235.996623014491
 20
1027.9922480620164
 11
1270.996623014491
 21
992.99224806201642
  0
LINE
  8
_0-0_
  6
CONTINUOUS
 62
    6
 10
1250.1387586382207
 20
1027.9922480620164
 11
1285.138758638217
 21
992.99224806201642
  0
LINE
  8
_0-0_
  6
CONTINUOUS
 62
    6
 10
1264.2808942619504
 20
1027.9922480620164
 11
1299.2808942619504
 21
992.99224806201642
  0
LINE
  8
_0-0_
  6
CONTINUOUS
 62
    6
 10
1278.4230298856801
 20
1027.9922480620164
 11
1313.4230298856837
 21
992.99224806201642
  0
LINE
  8
_0-0_
  6
CONTINUOUS
 62
    6
 10
1292.5651655094134
 20
1027.9922480620164
 11
1327.5651655094134
 21
992.99224806201642
  0
LINE
  8
_0-0_
  6
CONTINUOUS
 62
    6
 10
1306.7073011331431
 20
1027.9922480620164
 11
1341.7073011331431
 21
992.99224806201642
  0
LINE
  8
_0-0_
  6
CONTINUOUS
 62
    6
 10
1320.8494367568765
 20
1027.9922480620164
 11
1355.8494367568765
 21
992.99224806201642
  0
LINE
  8
_0-0_
  6
CONTINUOUS
 62
    6
 10
1334.9915723806025
 20
1027.9922480620164
 11
1369.9915723806062
 21
992.99224806201642
  0
LINE
  8
_0-0_
  6
CONTINUOUS
 62
    6
 10
1349.1337080043359
 20
1027.9922480620164
 11
1384.1337080043359
 21
992.99224806201642
  0
LINE
  8
_0-0_
  6
CONTINUOUS
 62
    6
 10
1363.2758436280692
 20
1027.9922480620164
 11
1398.2758436280692
 21
992.99224806201642
  0
LINE
  8
_0-0_
  6
CONTINUOUS
 62
    6
 10
1377.4179792517989
 20
1027.9922480620164
 11
1412.4179792517989
 21
992.99224806201642
  0
LINE
  8
_0-0_
  6
CONTINUOUS
 62
    6
 10
1391.5601148755286
 20
1027.9922480620164
 11
1426.5601148755322
 21
992.99224806201642
  0
LINE
  8
_0-0_
  6
CONTINUOUS
 62
    6
 10
1405.7022504992619
 20
1027.9922480620164
 11
1440.7022504992619
 21
992.99224806201642
  0
LINE
  8
_0-0_
  6
CONTINUOUS
 62
    6
 10
1419.8443861229916
 20
1027.9922480620146
 11
1454.8443861229916
 21
992.99224806201642
  0
LINE
  8
_0-0_
  6
CONTINUOUS
 62
    6
 10
1433.986521746725
 20
1027.9922480620164
 11
1468.986521746725
 21
992.99224806201642
  0
LINE
  8
_0-0_
  6
CONTINUOUS
 62
    6
 10
1448.1286573704547
 20
1027.9922480620164
 11
1483.1286573704547
 21
992.99224806201642
  0
LINE
  8
_0-0_
  6
CONTINUOUS
 62
    6
 10
1462.2707929941844
 20
1027.9922480620164
 11
1497.2707929941844
 21
992.99224806201642
  0
LINE
  8
_0-0_
  6
CONTINUOUS
 62
    6
 10
1476.4129286179177
 20
1027.9922480620164
 11
1511.4129286179177
 21
992.99224806201642
  0
LINE
  8
_0-0_
  6
CONTINUOUS
 62
    6
 10
1483.2848010545258
 20
992.9922480620146
 11
1518.2848010545258
 21
1027.9922480620146
  0
LINE
  8
_0-0_
  6
CONTINUOUS
 62
    6
 10
1469.1426654307925
 20
992.99224806201642
 11
1504.1426654307925
 21
1027.9922480620164
  0
LINE
  8
_0-0_
  6
CONTINUOUS
 62
    6
 10
1455.0005298070628
 20
992.99224806201642
 11
1490.0005298070628
 21
1027.9922480620164
  0
LINE
  8
_0-0_
  6
CONTINUOUS
 62
    6
 10
1440.8583941833294
 20
992.9922480620146
 11
1475.8583941833294
 21
1027.9922480620146
  0
LINE
  8
_0-0_
  6
CONTINUOUS
 62
    6
 10
1426.7162585595997
 20
992.99224806201642
 11
1461.7162585595997
 21
1027.9922480620164
  0
LINE
  8
_0-0_
  6
CONTINUOUS
 62
    6
 10
1412.5741229358664
 20
992.99224806201642
 11
1447.5741229358664
 21
1027.9922480620164
  0
LINE
  8
_0-0_
  6
CONTINUOUS
 62
    6
 10
1398.4319873121403
 20
992.99224806201642
 11
1433.4319873121403
 21
1027.9922480620164
  0
LINE
  8
_0-0_
  6
CONTINUOUS
 62
    6
 10
1384.289851688407
 20
992.99224806201642
 11
1419.289851688407
 21
1027.9922480620164
  0
LINE
  8
_0-0_
  6
CONTINUOUS
 62
    6
 10
1370.1477160646773
 20
992.99224806201642
 11
1405.1477160646773
 21
1027.9922480620164
  0
LINE
  8
_0-0_
  6
CONTINUOUS
 62
    6
 10
1356.005580440944
 20
992.99224806201642
 11
1391.005580440944
 21
1027.9922480620164
  0
LINE
  8
_0-0_
  6
CONTINUOUS
 62
    6
 10
1341.8634448172143
 20
992.99224806201642
 11
1376.8634448172143
 21
1027.9922480620164
  0
LINE
  8
_0-0_
  6
CONTINUOUS
 62
    6
 10
1327.7213091934809
 20
992.99224806201642
 11
1362.7213091934809
 21
1027.9922480620164
  0
LINE
  8
_0-0_
  6
CONTINUOUS
 62
    6
 10
1313.5791735697549
 20
992.99224806201642
 11
1348.5791735697549
 21
1027.9922480620164
  0
LINE
  8
_0-0_
  6
CONTINUOUS
 62
    6
 10
1299.4370379460215
 20
992.99224806201642
 11
1334.4370379460215
 21
1027.9922480620164
  0
LINE
  8
_0-0_
  6
CONTINUOUS
 62
    6
 10
1285.2949023222882
 20
992.99224806201642
 11
1320.2949023222882
 21
1027.9922480620146
  0
LINE
  8
_0-0_
  6
CONTINUOUS
 62
    6
 10
1271.1527666985585
 20
992.99224806201642
 11
1306.1527666985585
 21
1027.9922480620164
  0
LINE
  8
_0-0_
  6
CONTINUOUS
 62
    6
 10
1257.0106310748288
 20
992.99224806201642
 11
1292.0106310748288
 21
1027.9922480620164
  0
LINE
  8
_0-0_
  6
CONTINUOUS
 62
    6
 10
1242.8684954510954
 20
992.9922480620146
 11
1277.8684954510954
 21
1027.9922480620146
  0
LINE
  8
_0-0_
  6
CONTINUOUS
 62
    6
 10
1228.7263598273694
 20
992.99224806201642
 11
1263.7263598273694
 21
1027.9922480620164
  0
LINE
  8
_0-0_
  6
CONTINUOUS
 62
    6
 10
1214.584224203636
 20
992.99224806201642
 11
1249.584224203636
 21
1027.9922480620164
  0
LINE
  8
_0-0_
  6
CONTINUOUS
 62
    6
 10
1200.4420885799027
 20
992.99224806201642
 11
1235.4420885799027
 21
1027.9922480620164
  0
LINE
  8
_0-0_
  6
CONTINUOUS
 62
    6
 10
1186.299952956173
 20
992.99224806201642
 11
1221.299952956173
 21
1027.9922480620164
  0
LINE
  8
_0-0_
  6
CONTINUOUS
 62
    6
 10
1172.1578173324433
 20
992.99224806201642
 11
1207.1578173324433
 21
1027.9922480620164
  0
LINE
  8
_0-0_
  6
CONTINUOUS
 62
    6
 10
1158.01568170871
 20
992.99224806201642
 11
1193.01568170871
 21
1027.9922480620146
  0
LINE
  8
_0-0_
  6
CONTINUOUS
 62
    6
 10
1143.8735460849839
 20
992.99224806201642
 11
1178.8735460849839
 21
1027.9922480620164
  0
LINE
  8
_0-0_
  6
CONTINUOUS
 62
    6
 10
1129.7314104612506
 20
992.99224806201642
 11
1164.7314104612506
 21
1027.9922480620164
  0
LINE
  8
_0-0_
  6
CONTINUOUS
 62
    6
 10
1115.5892748375172
 20
992.9922480620146
 11
1150.5892748375172
 21
1027.9922480620164
  0
LINE
  8
_0-0_
  6
CONTINUOUS
 62
    6
 10
1101.4471392137875
 20
992.99224806201642
 11
1136.4471392137875
 21
1027.9922480620164
  0
LINE
  8
_0-0_
  6
CONTINUOUS
 62
    6
 10
1087.3050035900578
 20
992.99224806201642
 11
1122.3050035900578
 21
1027.9922480620164
  0
LINE
  8
_0-0_
  6
CONTINUOUS
 62
    6
 10
1073.1628679663245
 20
992.99224806201642
 11
1108.1628679663245
 21
1027.9922480620146
  0
LINE
  8
_0-0_
  6
CONTINUOUS
 62
    6
 10
1059.0207323425984
 20
992.99224806201642
 11
1094.0207323425984
 21
1027.9922480620164
  0
LINE
  8
_0-0_
  6
CONTINUOUS
 62
    6
 10
1044.8785967188651
 20
992.99224806201642
 11
1079.8785967188651
 21
1027.9922480620164
  0
LINE
  8
_0-0_
  6
CONTINUOUS
 62
    6
 10
1030.7364610951317
 20
992.9922480620146
 11
1065.7364610951317
 21
1027.9922480620146
  0
LINE
  8
_0-0_
  6
CONTINUOUS
 62
    6
 10
1029.9254991561083
 20
1006.3234217467227
 11
1051.594325471402
 21
1027.9922480620164
  0
LINE
  8
_0-0_
  6
CONTINUOUS
 62
    6
 10
1029.9254991561083
 20
1020.4655573704542
 11
1037.4521898476723
 21
1027.9922480620164
  0
LINE
  8
_0-0_
  6
CONTINUOUS
 62
    6
 10
1029.925499156112
 20
1027.9922480620164
 11
1523.925499156112
 21
1027.9922480620164
  0
LINE
  8
_0-0_
  6
CONTINUOUS
 62
    5
 10
1049.925499156112
 20
1109.9922480620164
 11
1049.925499156112
 21
1029.9922480620164
  0
LINE
  8
_0-0_
  6
CONTINUOUS
 62
    5
 10
1044.8650490463533
 20
1109.9922480620164
 11
1049.925499156112
 21
1104.9317979522596
  0
LINE
  8
_0-0_
  6
CONTINUOUS
 62
    5
 10
1039.20819479686
 20
1109.9922480620164
 11
1049.925499156112
 21
1099.2749437027662
  0
LINE
  8
_0-0_
  6
CONTINUOUS
 62
    5
 10
1033.5513405473703
 20
1109.9922480620164
 11
1049.925499156112
 21
1093.6180894532747
  0
LINE
  8
_0-0_
  6
CONTINUOUS
 62
    5
 10
1029.925499156112
 20
1107.9612352037832
 11
1049.925499156112
 21
1087.9612352037832
  0
LINE
  8
_0-0_
  6
CONTINUOUS
 62
    5
 10
1029.925499156112
 20
1102.3043809542917
 11
1049.925499156112
 21
1082.3043809542917
  0
LINE
  8
_0-0_
  6
CONTINUOUS
 62
    5
 10
1029.925499156112
 20
1096.6475267048002
 11
1049.925499156112
 21
1076.6475267048002
  0
LINE
  8
_0-0_
  6
CONTINUOUS
 62
    5
 10
1029.925499156112
 20
1090.9906724553068
 11
1049.925499156112
 21
1070.990672455305
  0
LINE
  8
_0-0_
  6
CONTINUOUS
 62
    5
 10
1029.925499156112
 20
1085.3338182058117
 11
1049.925499156112
 21
1065.3338182058135
  0
LINE
  8
_0-0_
  6
CONTINUOUS
 62
    5
 10
1029.925499156112
 20
1079.6769639563202
 11
1049.925499156112
 21
1059.6769639563202
  0
LINE
  8
_0-0_
  6
CONTINUOUS
 62
    5
 10
1029.925499156112
 20
1074.0201097068286
 11
1049.925499156112
 21
1054.0201097068286
  0
LINE
  8
_0-0_
  6
CONTINUOUS
 62
    5
 10
1029.925499156112
 20
1068.3632554573371
 11
1049.925499156112
 21
1048.3632554573371
  0
LINE
  8
_0-0_
  6
CONTINUOUS
 62
    5
 10
1029.925499156112
 20
1062.7064012078438
 11
1049.925499156112
 21
1042.7064012078438
  0
LINE
  8
_0-0_
  6
CONTINUOUS
 62
    5
 10
1029.925499156112
 20
1057.0495469583523
 11
1049.925499156112
 21
1037.0495469583523
  0
LINE
  8
_0-0_
  6
CONTINUOUS
 62
    5
 10
1029.925499156112
 20
1051.3926927088607
 11
1049.925499156112
 21
1031.3926927088607
  0
LINE
  8
_0-0_
  6
CONTINUOUS
 62
    5
 10
1029.925499156112
 20
1045.7358384593674
 11
1045.6690895534612
 21
1029.9922480620164
  0
LINE
  8
_0-0_
  6
CONTINUOUS
 62
    5
 10
1029.925499156112
 20
1040.0789842098741
 11
1040.0122353039678
 21
1029.9922480620164
  0
LINE
  8
_0-0_
  6
CONTINUOUS
 62
    5
 10
1029.925499156112
 20
1034.4221299603807
 11
1034.3553810544745
 21
1029.9922480620146
  0
LINE
  8
_0-0_
  6
CONTINUOUS
 62
    5
 10
1049.925499156112
 20
1109.9922480620164
 11
1029.925499156112
 21
1109.9922480620164
  0
LINE
  8
_0-0_
  6
CONTINUOUS
 62
    7
 10
1049.925499156112
 20
1035.0801181474337
 11
1055.0133692415275
 21
1029.9922480620164
  0
LINE
  8
_0-0_
  6
CONTINUOUS
 62
    7
 10
1049.925499156112
 20
1042.1511859592968
 11
1062.0844370533905
 21
1029.9922480620164
  0
LINE
  8
_0-0_
  6
CONTINUOUS
 62
    7
 10
1049.925499156112
 20
1049.2222537711634
 11
1069.1555048652572
 21
1029.9922480620146
  0
LINE
  8
_0-0_
  6
CONTINUOUS
 62
    5
 10
1209.9170117350386
 20
1106.4922480620164
 11
1209.9170117350386
 21
1029.9922480620164
  0
LINE
  8
_0-0_
  6
CONTINUOUS
 62
    5
 10
1189.9170117350386
 20
1106.4922480620164
 11
1209.9170117350386
 21
1106.4922480620164
  0
LINE
  8
_0-0_
  6
CONTINUOUS
 62
    5
 10
1189.9170117350386
 20
1029.9922480620164
 11
1189.9170117350386
 21
1106.4922480620164
  0
LINE
  8
_0-0_
  6
CONTINUOUS
 62
    5
 10
1188.9170117350386
 20
1107.9922480620164
 11
1210.9170117350386
 21
1107.9922480620164
  0
LINE
  8
_0-0_
  6
CONTINUOUS
 62
    5
 10
1188.9170117350386
 20
1106.9922480620164
 11
1188.9170117350386
 21
1107.9922480620164
  0
LINE
  8
_0-0_
  6
CONTINUOUS
 62
    5
 10
1190.9170117350386
 20
1106.9922480620164
 11
1188.9170117350386
 21
1106.9922480620164
  0
LINE
  8
_0-0_
  6
CONTINUOUS
 62
    5
 10
1190.9170117350386
 20
1106.4922480620164
 11
1190.9170117350386
 21
1106.9922480620164
  0
LINE
  8
_0-0_
  6
CONTINUOUS
 62
    5
 10
1188.9170117350386
 20
1106.4922480620164
 11
1190.9170117350386
 21
1106.4922480620164
  0
LINE
  8
_0-0_
  6
CONTINUOUS
 62
    5
 10
1188.9170117350386
 20
1094.9922480620164
 11
1188.9170117350386
 21
1106.4922480620164
  0
LINE
  8
_0-0_
  6
CONTINUOUS
 62
    5
 10
1189.4170117350386
 20
1094.9922480620164
 11
1188.9170117350386
 21
1094.9922480620164
  0
LINE
  8
_0-0_
  6
CONTINUOUS
 62
    5
 10
1188.9170117350386
 20
1093.9922480620164
 11
1189.4170117350386
 21
1094.9922480620164
  0
LINE
  8
_0-0_
  6
CONTINUOUS
 62
    5
 10
1188.9170117350386
 20
1080.9922480620164
 11
1188.9170117350386
 21
1093.9922480620164
  0
LINE
  8
_0-0_
  6
CONTINUOUS
 62
    5
 10
1189.4170117350386
 20
1080.9922480620164
 11
1188.9170117350386
 21
1080.9922480620164
  0
LINE
  8
_0-0_
  6
CONTINUOUS
 62
    5
 10
1188.9170117350386
 20
1079.9922480620164
 11
1189.4170117350386
 21
1080.9922480620164
  0
LINE
  8
_0-0_
  6
CONTINUOUS
 62
    5
 10
1187.9170117350386
 20
1079.9922480620164
 11
1188.9170117350386
 21
1079.9922480620164
  0
LINE
  8
_0-0_
  6
CONTINUOUS
 62
    5
 10
1187.9170117350386
 20
1106.4922480620164
 11
1187.9170117350386
 21
1079.9922480620164
  0
LINE
  8
_0-0_
  6
CONTINUOUS
 62
    5
 10
1187.4170117350386
 20
1106.4922480620164
 11
1187.9170117350386
 21
1106.4922480620164
  0
LINE
  8
_0-0_
  6
CONTINUOUS
 62
    5
 10
1187.4170117350386
 20
1108.4922480620164
 11
1187.4170117350386
 21
1106.4922480620164
  0
LINE
  8
_0-0_
  6
CONTINUOUS
 62
    5
 10
1212.4170117350386
 20
1108.4922480620164
 11
1187.4170117350386
 21
1108.4922480620164
  0
LINE
  8
_0-0_
  6
CONTINUOUS
 62
    5
 10
1212.4170117350386
 20
1106.4922480620164
 11
1212.4170117350386
 21
1108.4922480620164
  0
LINE
  8
_0-0_
  6
CONTINUOUS
 62
    5
 10
1211.9170117350386
 20
1106.4922480620164
 11
1212.4170117350386
 21
1106.4922480620164
  0
LINE
  8
_0-0_
  6
CONTINUOUS
 62
    5
 10
1211.9170117350386
 20
1079.9922480620164
 11
1211.9170117350386
 21
1106.4922480620164
  0
LINE
  8
_0-0_
  6
CONTINUOUS
 62
    5
 10
1210.9170117350386
 20
1079.9922480620164
 11
1211.9170117350386
 21
1079.9922480620164
  0
LINE
  8
_0-0_
  6
CONTINUOUS
 62
    5
 10
1210.4170117350386
 20
1080.9922480620164
 11
1210.9170117350386
 21
1079.9922480620164
  0
LINE
  8
_0-0_
  6
CONTINUOUS
 62
    5
 10
1210.9170117350386
 20
1080.9922480620164
 11
1210.4170117350386
 21
1080.9922480620164
  0
LINE
  8
_0-0_
  6
CONTINUOUS
 62
    5
 10
1210.9170117350386
 20
1093.9922480620164
 11
1210.9170117350386
 21
1080.9922480620164
  0
LINE
  8
_0-0_
  6
CONTINUOUS
 62
    5
 10
1210.4170117350386
 20
1094.9922480620164
 11
1210.9170117350386
 21
1093.9922480620164
  0
LINE
  8
_0-0_
  6
CONTINUOUS
 62
    5
 10
1210.9170117350386
 20
1094.9922480620164
 11
1210.4170117350386
 21
1094.9922480620164
  0
LINE
  8
_0-0_
  6
CONTINUOUS
 62
    5
 10
1210.9170117350386
 20
1106.4922480620164
 11
1210.9170117350386
 21
1094.9922480620164
  0
LINE
  8
_0-0_
  6
CONTINUOUS
 62
    5
 10
1208.9170117350386
 20
1106.4922480620164
 11
1210.9170117350386
 21
1106.4922480620164
  0
LINE
  8
_0-0_
  6
CONTINUOUS
 62
    5
 10
1208.9170117350386
 20
1106.9922480620164
 11
1208.9170117350386
 21
1106.4922480620164
  0
LINE
  8
_0-0_
  6
CONTINUOUS
 62
    5
 10
1210.9170117350386
 20
1106.9922480620164
 11
1208.9170117350386
 21
1106.9922480620164
  0
LINE
  8
_0-0_
  6
CONTINUOUS
 62
    5
 10
1210.9170117350386
 20
1107.9922480620164
 11
1210.9170117350386
 21
1106.9922480620164
  0
LINE
  8
_0-0_
  6
CONTINUOUS
 62
    5
 10
1199.9170117350386
 20
1109.4922480620164
 11
1212.4170117350386
 21
1109.4922480620164
  0
LINE
  8
_0-0_
  6
CONTINUOUS
 62
    5
 10
1187.4170117350386
 20
1109.4922480620164
 11
1199.9170117350386
 21
1109.4922480620164
  0
LINE
  8
_0-0_
  6
CONTINUOUS
 62
    5
 10
1186.9170117350386
 20
1109.9922480620164
 11
1187.4170117350386
 21
1109.4922480620164
  0
LINE
  8
_0-0_
  6
CONTINUOUS
 62
    5
 10
1185.9170117350386
 20
1109.9922480620164
 11
1186.9170117350386
 21
1109.9922480620164
  0
LINE
  8
_0-0_
  6
CONTINUOUS
 62
    5
 10
1185.9170117350386
 20
1106.9922480620164
 11
1185.9170117350386
 21
1109.9922480620164
  0
LINE
  8
_0-0_
  6
CONTINUOUS
 62
    5
 10
1186.4170117350386
 20
1106.9922480620164
 11
1185.9170117350386
 21
1106.9922480620164
  0
LINE
  8
_0-0_
  6
CONTINUOUS
 62
    5
 10
1186.4170117350386
 20
1091.9922480620164
 11
1186.4170117350386
 21
1106.9922480620164
  0
LINE
  8
_0-0_
  6
CONTINUOUS
 62
    5
 10
1185.9170117350313
 20
1091.9922480620164
 11
1186.4170117350386
 21
1091.9922480620164
  0
LINE
  8
_0-0_
  6
CONTINUOUS
 62
    5
 10
1185.9170117350386
 20
1089.9922480620164
 11
1185.9170117350313
 21
1091.9922480620164
  0
LINE
  8
_0-0_
  6
CONTINUOUS
 62
    5
 10
1187.4170117350386
 20
1089.9922480620164
 11
1185.9170117350386
 21
1089.9922480620164
  0
LINE
  8
_0-0_
  6
CONTINUOUS
 62
    5
 10
1187.4170117350386
 20
1108.4922480620164
 11
1187.4170117350386
 21
1089.9922480620164
  0
LINE
  8
_0-0_
  6
CONTINUOUS
 62
    5
 10
1212.4170117350386
 20
1108.4922480620164
 11
1187.4170117350386
 21
1108.4922480620164
  0
LINE
  8
_0-0_
  6
CONTINUOUS
 62
    5
 10
1212.4170117350386
 20
1089.9922480620164
 11
1212.4170117350386
 21
1108.4922480620164
  0
LINE
  8
_0-0_
  6
CONTINUOUS
 62
    5
 10
1213.9170117350386
 20
1089.9922480620164
 11
1212.4170117350386
 21
1089.9922480620164
  0
LINE
  8
_0-0_
  6
CONTINUOUS
 62
    5
 10
1213.9170117350423
 20
1091.9922480620164
 11
1213.9170117350386
 21
1089.9922480620164
  0
LINE
  8
_0-0_
  6
CONTINUOUS
 62
    5
 10
1213.4170117350386
 20
1091.9922480620164
 11
1213.9170117350423
 21
1091.9922480620164
  0
LINE
  8
_0-0_
  6
CONTINUOUS
 62
    5
 10
1213.4170117350386
 20
1106.9922480620164
 11
1213.4170117350386
 21
1091.9922480620164
  0
LINE
  8
_0-0_
  6
CONTINUOUS
 62
    5
 10
1213.9170117350386
 20
1106.9922480620164
 11
1213.4170117350386
 21
1106.9922480620164
  0
LINE
  8
_0-0_
  6
CONTINUOUS
 62
    5
 10
1213.9170117350386
 20
1109.9922480620164
 11
1213.9170117350386
 21
1106.9922480620164
  0
LINE
  8
_0-0_
  6
CONTINUOUS
 62
    5
 10
1212.9170117350386
 20
1109.9922480620164
 11
1213.9170117350386
 21
1109.9922480620164
  0
LINE
  8
_0-0_
  6
CONTINUOUS
 62
    5
 10
1212.4170117350386
 20
1109.4922480620164
 11
1212.9170117350386
 21
1109.9922480620164
  0
LINE
  8
_0-0_
  6
CONTINUOUS
 62
    5
 10
1193.1310968336456
 20
1029.9922480620164
 11
1193.1310968336456
 21
1106.4922480620164
  0
LINE
  8
_0-0_
  6
CONTINUOUS
 62
    5
 10
1196.8810968336456
 20
1029.9922480620164
 11
1196.8810968336456
 21
1106.4922480620164
  0
LINE
  8
_0-0_
  6
CONTINUOUS
 62
    5
 10
1200.6310968336456
 20
1029.9922480620164
 11
1200.6310968336456
 21
1106.4922480620164
  0
LINE
  8
_0-0_
  6
CONTINUOUS
 62
    5
 10
1204.3810968336456
 20
1029.9922480620164
 11
1204.3810968336456
 21
1106.4922480620164
  0
LINE
  8
_0-0_
  6
CONTINUOUS
 62
    5
 10
1208.1310968336456
 20
1029.9922480620164
 11
1208.1310968336456
 21
1106.4922480620164
  0
LINE
  8
_0-0_
  6
CONTINUOUS
 62
    7
 10
1213.9170117350386
 20
1109.9922480620164
 11
1521.4076835609612
 21
1109.9922480620164
  0
LINE
  8
_0-0_
  6
CONTINUOUS
 62
    7
 10
1498.2723873195737
 20
1109.9922480620164
 11
1521.4076835609612
 21
1086.8569518206252
  0
LINE
  8
_0-0_
  6
CONTINUOUS
 62
    7
 10
1491.201319507707
 20
1109.9922480620164
 11
1521.4076835609612
 21
1079.7858840087604
  0
LINE
  8
_0-0_
  6
CONTINUOUS
 62
    7
 10
1484.1302516958403
 20
1109.9922480620164
 11
1521.4076835609612
 21
1072.7148161968955
  0
LINE
  8
_0-0_
  6
CONTINUOUS
 62
    7
 10
1185.9170117350386
 20
1109.9922480620164
 11
1029.925499156112
 21
1109.9922480620164
  0
LINE
  8
_0-0_
  6
CONTINUOUS
 62
    7
 10
1243.7139460924136
 20
1109.9922480620164
 11
1323.7139460924172
 21
1029.9922480620164
  0
LINE
  8
_0-0_
  6
CONTINUOUS
 62
    7
 10
1236.6428782805469
 20
1109.9922480620164
 11
1316.6428782805469
 21
1029.9922480620164
  0
LINE
  8
_0-0_
  6
CONTINUOUS
 62
    7
 10
1229.5718104686839
 20
1109.9922480620164
 11
1309.5718104686839
 21
1029.9922480620146
  0
LINE
  8
_0-0_
  6
CONTINUOUS
 62
    7
 10
1029.925499156112
 20
1029.9922480620146
 11
1523.925499156112
 21
1029.9922480620146
  0
LINE
  8
_0-0_
  6
CONTINUOUS
 62
    5
 10
1029.925499156112
 20
1028.9922480620146
 11
1523.925499156112
 21
1028.9922480620146
  0
LINE
  8
_0-0_
  6
CONTINUOUS
 62
    7
 10
1258.761990701214
 20
1012.1965430140219
 11
1358.4248154697034
 21
1184.8176191388786
  0
POINT
  8
_0-0_
 62
    7
 10
1258.761990701214
 20
1012.1965430140219
  0
TEXT
  8
_0-0_
 62
    7
 10
1360.0522014568578
 20
1173.2479781154955
 40
30
 41
1
 50
0
  1
断熱材
  0
LINE
  8
_0-0_
  6
CONTINUOUS
 62
    7
 10
1196.9749621402698
 20
1098.2932221563181
 11
1274.6619785723178
 21
1232.851081705064
  0
POINT
  8
_0-0_
 62
    7
 10
1196.9749621402698
 20
1098.2932221563181
  0
TEXT
  8
_0-0_
 62
    7
 10
1276.9942286372298
 20
1218.8285729555366
 40
30
 41
1
 50
0
  1
伸縮目地
  0
LINE
  8
_0-0_
  6
CONTINUOUS
 62
    7
 10
1037.9493312539089
 20
1103.3577326941024
 11
1097.3057404560877
 21
1206.1660491871237
  0
POINT
  8
_0-0_
 62
    7
 10
1037.9493312539089
 20
1103.3577326941024
  0
TEXT
  8
_0-0_
 62
    7
 10
1097.7105555997387
 20
1195.5318244817365
 40
30
 41
1
 50
0
  1
成型緩衝材
  0
CIRCLE
  8
_0-0_
  6
DASHED2
 62
    1
 10
1026.2518092863811
 20
1180.6679068237838
 40
40
  0
TEXT
  8
_0-0_
 62
    7
 10
1012.9214991929604
 20
1209.2888667302479
 40
24
 41
1
 50
0
  1
Ａ
  0
LINE
  8
_0-0_
  6
CONTINUOUS
 62
    7
 10
1606.1822113961698
 20
503.68876944545923
 11
1255.2013080935849
 21
503.68876944545923
  0
LINE
  8
_0-0_
  6
CONTINUOUS
 62
    6
 10
1255.2013080935849
 20
319.18876944545923
 11
1255.2013080935849
 21
240.43876944545923
  0
LINE
  8
_0-0_
  6
CONTINUOUS
 62
    6
 10
1255.2013080935849
 20
241.91211051910182
 11
1256.6746491672202
 21
240.43876944545923
  0
LINE
  8
_0-0_
  6
CONTINUOUS
 62
    6
 10
1255.2013080935758
 20
273.73191567249819
 11
1288.4944543206184
 21
240.43876944545559
  0
LINE
  8
_0-0_
  6
CONTINUOUS
 62
    6
 10
1255.2013080935849
 20
305.55172082588911
 11
1320.3142594740111
 21
240.43876944545923
  0
LINE
  8
_0-0_
  6
CONTINUOUS
 62
    6
 10
1273.3840646274111
 20
319.18876944545559
 11
1352.1340646274111
 21
240.43876944545559
  0
LINE
  8
_0-0_
  6
CONTINUOUS
 62
    6
 10
1305.2038697808021
 20
319.18876944545559
 11
1383.9538697808021
 21
240.43876944545559
  0
LINE
  8
_0-0_
  6
CONTINUOUS
 62
    6
 10
1337.0236749342039
 20
319.18876944545923
 11
1415.7736749342039
 21
240.43876944545923
  0
LINE
  8
_0-0_
  6
CONTINUOUS
 62
    6
 10
1368.8434800875948
 20
319.18876944545559
 11
1447.5934800875875
 21
240.43876944545923
  0
LINE
  8
_0-0_
  6
CONTINUOUS
 62
    6
 10
1400.6632852409857
 20
319.18876944545559
 11
1479.4132852409857
 21
240.43876944545559
  0
LINE
  8
_0-0_
  6
CONTINUOUS
 62
    6
 10
1432.4830903943785
 20
319.18876944545923
 11
1511.2330903943785
 21
240.43876944545923
  0
LINE
  8
_0-0_
  6
CONTINUOUS
 62
    6
 10
1464.3028955477785
 20
319.18876944545559
 11
1543.0528955477785
 21
240.43876944545559
  0
LINE
  8
_0-0_
  6
CONTINUOUS
 62
    6
 10
1496.1227007011694
 20
319.18876944545559
 11
1574.8727007011694
 21
240.43876944545559
  0
LINE
  8
_0-0_
  6
CONTINUOUS
 62
    6
 10
1511.5844136835476
 20
240.43876944545923
 11
1590.3344136835476
 21
319.18876944545923
  0
LINE
  8
_0-0_
  6
CONTINUOUS
 62
    6
 10
1479.7646085301458
 20
240.43876944545923
 11
1558.5146085301458
 21
319.18876944545923
  0
LINE
  8
_0-0_
  6
CONTINUOUS
 62
    6
 10
1447.9448033767476
 20
240.43876944545559
 11
1526.6948033767476
 21
319.18876944545923
  0
LINE
  8
_0-0_
  6
CONTINUOUS
 62
    6
 10
1416.1249982233549
 20
240.43876944545923
 11
1494.8749982233549
 21
319.18876944545923
  0
LINE
  8
_0-0_
  6
CONTINUOUS
 62
    6
 10
1384.3051930699621
 20
240.43876944545923
 11
1463.0551930699621
 21
319.18876944545923
  0
LINE
  8
_0-0_
  6
CONTINUOUS
 62
    6
 10
1352.4853879165639
 20
240.43876944545923
 11
1431.2353879165639
 21
319.18876944545559
  0
LINE
  8
_0-0_
  6
CONTINUOUS
 62
    6
 10
1320.6655827631803
 20
240.43876944545923
 11
1399.4155827631803
 21
319.18876944545923
  0
LINE
  8
_0-0_
  6
CONTINUOUS
 62
    6
 10
1288.8457776097785
 20
240.43876944545923
 11
1367.5957776097785
 21
319.18876944545923
  0
LINE
  8
_0-0_
  6
CONTINUOUS
 62
    6
 10
1257.0259724563803
 20
240.43876944545559
 11
1335.7759724563803
 21
319.18876944545559
  0
LINE
  8
_0-0_
  6
CONTINUOUS
 62
    6
 10
1255.2013080935758
 20
270.43391023604931
 11
1303.9561673029875
 21
319.18876944545923
  0
LINE
  8
_0-0_
  6
CONTINUOUS
 62
    6
 10
1255.2013080935758
 20
302.25371538944387
 11
1272.1363621495948
 21
319.18876944545923
  0
LINE
  8
_0-0_
  6
CONTINUOUS
 62
    5
 10
1300.2013080935849
 20
503.68876944545923
 11
1300.2013080935849
 21
323.68876944545923
  0
LINE
  8
_0-0_
  6
CONTINUOUS
 62
    5
 10
1288.815295346627
 20
503.68876944545923
 11
1300.2013080935849
 21
492.30275669850676
  0
LINE
  8
_0-0_
  6
CONTINUOUS
 62
    5
 10
1276.0873732852669
 20
503.68876944545741
 11
1300.2013080935849
 21
479.57483463714675
  0
LINE
  8
_0-0_
  6
CONTINUOUS
 62
    5
 10
1263.359451223916
 20
503.68876944545923
 11
1300.2013080935849
 21
466.84691257578856
  0
LINE
  8
_0-0_
  6
CONTINUOUS
 62
    5
 10
1255.2013080935849
 20
499.11899051443584
 11
1300.2013080935849
 21
454.11899051443584
  0
LINE
  8
_0-0_
  6
CONTINUOUS
 62
    5
 10
1255.2013080935849
 20
486.39106845307947
 11
1300.2013080935849
 21
441.39106845307947
  0
LINE
  8
_0-0_
  6
CONTINUOUS
 62
    5
 10
1255.2013080935849
 20
473.6631463917231
 11
1300.2013080935849
 21
428.6631463917231
  0
LINE
  8
_0-0_
  6
CONTINUOUS
 62
    5
 10
1255.2013080935849
 20
460.9352243303631
 11
1300.2013080935849
 21
415.93522433035946
  0
LINE
  8
_0-0_
  6
CONTINUOUS
 62
    5
 10
1255.2013080935849
 20
448.20730226900127
 11
1300.2013080935849
 21
403.20730226900309
  0
LINE
  8
_0-0_
  6
CONTINUOUS
 62
    5
 10
1255.2013080935849
 20
435.47938020764309
 11
1300.2013080935849
 21
390.47938020764309
  0
LINE
  8
_0-0_
  6
CONTINUOUS
 62
    5
 10
1255.2013080935849
 20
422.7514581462849
 11
1300.2013080935849
 21
377.75145814628672
  0
LINE
  8
_0-0_
  6
CONTINUOUS
 62
    5
 10
1255.2013080935849
 20
410.02353608493036
 11
1300.2013080935849
 21
365.02353608493218
  0
LINE
  8
_0-0_
  6
CONTINUOUS
 62
    5
 10
1255.2013080935849
 20
397.29561402357035
 11
1300.2013080935849
 21
352.29561402357217
  0
LINE
  8
_0-0_
  6
CONTINUOUS
 62
    5
 10
1255.2013080935849
 20
384.5676919622158
 11
1300.2013080935849
 21
339.5676919622158
  0
LINE
  8
_0-0_
  6
CONTINUOUS
 62
    5
 10
1255.2013080935849
 20
371.83976990085944
 11
1300.2013080935849
 21
326.83976990085944
  0
LINE
  8
_0-0_
  6
CONTINUOUS
 62
    5
 10
1255.2013080935849
 20
359.11184783949943
 11
1290.6243864876196
 21
323.68876944545923
  0
LINE
  8
_0-0_
  6
CONTINUOUS
 62
    5
 10
1255.2013080935849
 20
346.38392577813943
 11
1277.8964644262596
 21
323.68876944545923
  0
LINE
  8
_0-0_
  6
CONTINUOUS
 62
    5
 10
1255.2013080935849
 20
333.65600371677942
 11
1265.1685423648996
 21
323.68876944545559
  0
LINE
  8
_0-0_
  6
CONTINUOUS
 62
    5
 10
1300.2013080935849
 20
503.68876944545923
 11
1255.2013080935849
 21
503.68876944545923
  0
LINE
  8
_0-0_
  6
CONTINUOUS
 62
    7
 10
1241.7013080935849
 20
217.93876944545923
 11
1241.7013080935849
 21
523.68876944545923
  0
LINE
  8
_0-0_
  6
CONTINUOUS
 62
    4
 10
1255.2013080935849
 20
523.68876944545923
 11
1255.2013080935849
 21
238.18876944545923
  0
LINE
  8
_0-0_
  6
CONTINUOUS
 62
    7
 10
1201.7013080935849
 20
418.55833365687727
 11
1241.7013080935849
 21
458.55833365687727
  0
LINE
  8
_0-0_
  6
CONTINUOUS
 62
    7
 10
1201.7013080935849
 20
402.64843108017817
 11
1241.7013080935849
 21
442.64843108017817
  0
LINE
  8
_0-0_
  6
CONTINUOUS
 62
    7
 10
1201.7013080935849
 20
386.73852850348089
 11
1241.7013080935849
 21
426.73852850348089
  0
LINE
  8
_0-0_
  6
CONTINUOUS
 62
    7
 10
1470.1986263364797
 20
177.93876944545923
 11
1510.1986263364815
 21
217.93876944546105
  0
LINE
  8
_0-0_
  6
CONTINUOUS
 62
    7
 10
1486.1085289131788
 20
177.93876944545923
 11
1526.1085289131788
 21
217.93876944545923
  0
LINE
  8
_0-0_
  6
CONTINUOUS
 62
    7
 10
1502.0184314898779
 20
177.93876944545923
 11
1542.0184314898779
 21
217.93876944545923
  0
LINE
  8
_0-0_
  6
CONTINUOUS
 62
    7
 10
1300.2013080935849
 20
458.82886525496656
 11
1435.3414039030959
 21
323.68876944545559
  0
LINE
  8
_0-0_
  6
CONTINUOUS
 62
    7
 10
1300.2013080935812
 20
474.73876783166747
 11
1451.2513064797949
 21
323.68876944545377
  0
LINE
  8
_0-0_
  6
CONTINUOUS
 62
    7
 10
1300.2013080935849
 20
490.64867040836111
 11
1467.1612090564904
 21
323.68876944545559
  0
LINE
  8
_0-0_
  6
CONTINUOUS
 62
    7
 10
1241.7013080935849
 20
217.93876944545923
 11
1606.1822113961698
 21
217.93876944545923
  0
LINE
  8
_0-0_
  6
CONTINUOUS
 62
    6
 10
1559.7623110079621
 20
319.18876944545559
 11
1606.1822113961698
 21
272.76886905724609
  0
LINE
  8
_0-0_
  6
CONTINUOUS
 62
    6
 10
1575.2240239903294
 20
240.43876944545923
 11
1606.1822113961698
 21
271.39695685129959
  0
LINE
  8
_0-0_
  6
CONTINUOUS
 62
    6
 10
1255.2013080935849
 20
240.43876944545923
 11
1606.1822113961698
 21
240.43876944545923
  0
LINE
  8
_0-0_
  6
CONTINUOUS
 62
    6
 10
1527.9425058545712
 20
319.18876944545923
 11
1606.1822113961698
 21
240.94906390386063
  0
LINE
  8
_0-0_
  6
CONTINUOUS
 62
    4
 10
1255.2013080935849
 20
238.18876944545923
 11
1606.1822113961698
 21
238.18876944545923
  0
LINE
  8
_0-0_
  6
CONTINUOUS
 62
    6
 10
1543.4042188369312
 20
240.43876944545923
 11
1606.1822113961698
 21
303.21676200469415
  0
LINE
  8
_0-0_
  6
CONTINUOUS
 62
    6
 10
1591.582116161353
 20
319.18876944545923
 11
1606.1822113961698
 21
304.58867421064247
  0
LINE
  8
_0-0_
  6
CONTINUOUS
 62
    6
 10
1255.2013080935849
 20
319.18876944545923
 11
1606.1822113961698
 21
319.18876944545923
  0
LINE
  8
_0-0_
  6
CONTINUOUS
 62
    5
 10
1255.2013080935849
 20
321.43876944545559
 11
1606.1822113961698
 21
321.43876944545559
  0
LINE
  8
_0-0_
  6
CONTINUOUS
 62
    7
 10
1255.2013080935849
 20
323.68876944545559
 11
1606.1822113961698
 21
323.68876944545559
  0
LINE
  8
_0-0_
  6
CONTINUOUS
 62
    7
 10
1580.6845301418925
 20
217.93876944545923
 11
1623.4826400851653
 21
292.06727033512584
  0
POINT
  8
_0-0_
 62
    7
 10
1580.6845301418925
 20
217.93876944545923
  0
TEXT
  8
_0-0_
 62
    7
 10
1626.1012505043291
 20
283.81436152652827
 40
21.617968000000001
 41
1
 50
0
  1
ﾌﾟﾗｲﾏｰ
  0
LINE
  8
_0-0_
  6
CONTINUOUS
 62
    7
 10
1517.525396729161
 20
239.4120443450131
 11
1586.7275188375443
 21
359.27363582831936
  0
POINT
  8
_0-0_
 62
    7
 10
1517.525396729161
 20
239.4120443450131
  0
TEXT
  8
_0-0_
 62
    7
 10
1590.8401330900269
 20
352.5520695932621
 40
21.617968000000001
 41
1
 50
0
  1
ｳﾚﾀﾝ防水
  0
LINE
  8
_0-0_
  6
CONTINUOUS
 62
    7
 10
1485.4192469227655
 20
321.43876944545559
 11
1531.2125987263407
 21
400.7551814181254
  0
POINT
  8
_0-0_
 62
    7
 10
1485.4192469227655
 20
321.43876944545559
  0
TEXT
  8
_0-0_
 62
    7
 10
1533.6518605501624
 20
391.70422583114964
 40
21.617968000000001
 41
1
 50
0
  1
絶縁ﾌｨﾙﾑ
  0
LINE
  8
_0-0_
  6
CONTINUOUS
 62
    7
 10
1464.3254878318003
 20
434.78200289288657
 11
1514.318072791526
 21
521.37170004483528
  0
POINT
  8
_0-0_
 62
    7
 10
1464.3254878318003
 20
434.78200289288657
  0
TEXT
  8
_0-0_
 62
    7
 10
1518.2007224730369
 20
511.62045229924047
 40
21.617968000000001
 41
1
 50
0
  1
保護ｺﾝｸﾘｰﾄ
  0
TEXT
  8
_0-0_
 62
    7
 10
1366.2902247961083
 20
509.85405116346124
 40
21.617968000000001
 41
1
 50
0
  1
成型緩衝材
  0
LINE
  8
_0-0_
  6
CONTINUOUS
 62
    7
 10
1365.2035693203288
 20
519.51769049810287
 11
1292.1343047414703
 21
392.95801177582621
  0
POINT
  8
_0-0_
 62
    7
 10
1292.1343047414703
 20
392.95801177582621
  0
LINE
  8
_0-0_
  6
CONTINUOUS
 62
    7
 10
1255.2013080935849
 20
514.80905513653056
 11
1268.9298482680952
 21
538.58758423253244
  0
TEXT
  8
_0-0_
 62
    7
 10
1268.5736231951123
 20
538.65566490751485
 40
21.617968000000001
 41
1
 50
0
  1
ﾄｯﾌﾟｺｰﾄ(露出部のみ)
  0
POINT
  8
_0-0_
 62
    7
 10
1255.2013080935849
 20
514.80905513653056
  0
LINE
  8
_0-0_
  6
CONTINUOUS
 62
    7
 10
672.13606690525205
 20
1633.3565543671132
 11
1706.8525777203668
 21
1633.3565543671132
  0
LINE
  8
_0-0_
  6
CONTINUOUS
 62
    7
 10
672.13606690525205
 20
1553.3565543671132
 11
1706.8525777203668
 21
1553.3565543671132
  0
LINE
  8
_0-0_
  6
CONTINUOUS
 62
    7
 10
672.13606690525205
 20
1473.3565543671132
 11
1706.8525777203668
 21
1473.3565543671132
  0
LINE
  8
_0-0_
  6
CONTINUOUS
 62
    7
 10
1189.4943223128103
 20
1633.3565543671132
 11
1189.4943223128103
 21
1473.3565543671132
  0
TEXT
  8
_0-0_
 62
    7
 10
1213.4943223128103
 20
1577.3565543671132
 40
20
 41
1
 50
0
  1
構造：ＲＣ造
  0
TEXT
  8
_0-0_
 62
    7
 10
1213.4943223128103
 20
1497.3565543671132
 40
20
 41
1
 50
0
  1
下地：コンクリートスラブ
  0
TEXT
  8
_0-0_
 62
    7
 10
696.13606690525205
 20
1577.3565543671134
 40
20
 41
1
 50
0
  1
図面番号：UPM-10CF-kabe-01
  0
TEXT
  8
_0-0_
 62
    7
 10
696.13606690525205
 20
1497.3565543671132
 40
20
 41
1
 50
0
  1
施工部位：壁面立上り(入り巾木)
  0
ENDSEC
  0
EOF
