  0
SECTION
  2
HEADER
  9
$ACADVER
  1
AC1009
  9
$INSBASE
 10
0
 20
0
 30
0
  9
$EXTMIN
 10
0
 20
0
  9
$EXTMAX
 10
2378
 20
1682
  9
$LIMMIN
 10
0
 20
0
  9
$LIMMAX
 10
2378
 20
1682
  9
$LTSCALE
 40
1
  0
ENDSEC
  0
SECTION
  2
TABLES
  0
TABLE
  2
LTYPE
 70
     9
  0
LTYPE
  2
CONTINUOUS
 70
    64
  3
実線
 72
    65
 73
     0
 40
0.0
  0
LTYPE
  2
DASHED1
 70
    64
  3
--  --  --  --  --  --  --  --  
 72
    65
 73
     2
 40
2.5
 49
1.25
 49
-1.25
  0
LTYPE
  2
DASHED2
 70
    64
  3
----    ----    ----    ----    
 72
    65
 73
     2
 40
5.0
 49
2.5
 49
-2.5
  0
LTYPE
  2
DASHED3
 70
    64
  3
------  ------  ------  ------  
 72
    65
 73
     2
 40
5.0
 49
3.75
 49
-1.25
  0
LTYPE
  2
CENTER1
 70
    64
  3
----- - ----- - ----- - ----- - 
 72
    65
 73
     4
 40
10.0
 49
6.25
 49
-1.25
 49
1.25
 49
-1.25
  0
LTYPE
  2
CENTER2
 70
    64
  3
----------  --  ----------  --  
 72
    65
 73
     4
 40
20.0
 49
12.5
 49
-2.5
 49
2.5
 49
-2.5
  0
LTYPE
  2
PHANTOM1
 70
    64
  3
--- - - --- - - --- - - --- - - 
 72
    65
 73
     6
 40
10.0
 49
3.25
 49
-1.25
 49
1.25
 49
-1.25
 49
1.25
 49
-1.25
  0
LTYPE
  2
PHANTOM2
 70
    64
  3
--------  -  -  --------  -  -  
 72
    65
 73
     6
 40
20.0
 49
10.0
 49
-2.5
 49
1.25
 49
-2.5
 49
1.25
 49
-2.5
  0
LTYPE
  2
DOT
 70
    64
  3
-   -   -   -   -   -   -   -   
 72
    65
 73
     2
 40
2.5
 49
0.625
 49
-1.875
  0
LTYPE
  2
DUMMY
 70
    64
  3
ダミー
 72
    65
 73
     0
 40
0.0
  0
LTYPE
  2
RAND1
 70
    64
  3
ランダム線1
 72
    65
 73
     4
 40
10.0
 49
1.0
 49
-2.0
 49
3.0
 49
-4.0
  0
LTYPE
  2
RAND2
 70
    64
  3
ランダム線2
 72
    65
 73
     4
 40
14.0
 49
2.0
 49
-3.0
 49
4.0
 49
-5.0
  0
LTYPE
  2
RAND3
 70
    64
  3
ランダム線3
 72
    65
 73
     4
 40
18.0
 49
3.0
 49
-4.0
 49
5.0
 49
-6.0
  0
LTYPE
  2
RAND4
 70
    64
  3
ランダム線4
 72
    65
 73
     4
 40
22.0
 49
4.0
 49
-5.0
 49
6.0
 49
-7.0
  0
LTYPE
  2
RAND5
 70
    64
  3
ランダム線5
 72
    65
 73
     4
 40
26.0
 49
5.0
 49
-6.0
 49
7.0
 49
-8.0
  0
LTYPE
  2
LONG1
 70
    64
  3
----------  --  ----------  --  
 72
    65
 73
     4
 40
40.0
 49
32.5
 49
-2.5
 49
2.5
 49
-2.5
  0
LTYPE
  2
LONG2
 70
    64
  3
--------  -  -  --------  -  -  
 72
    65
 73
     6
 40
40.0
 49
30.0
 49
-2.5
 49
1.25
 49
-2.5
 49
1.25
 49
-2.5
  0
LTYPE
  2
LONG3
 70
    64
  3
+++++++++++++++..+++++++++++++++
 72
    65
 73
     2
 40
40.0
 49
37.5
 49
-2.5
  0
LTYPE
  2
LONG4
 70
    64
  3
+++++++++++++++..+++++++++++++++
 72
    65
 73
     2
 40
80.0
 49
75.0
 49
-5.0
  0
LTYPE
  2
LONG5
 70
    64
  3
----------  --  ----------  --  
 72
    65
 73
     4
 40
60.0
 49
37.5
 49
-7.5
 49
7.5
 49
-7.5
  0
LTYPE
  2
dashed
 70
   64
  3
-------   -------------   ------
 72
   65
 73
    2
 40
7.5
 49
6
 49
-1.5
  0
LTYPE
  2
dashed_spaced
 70
   64
  3
----        --------        ----
 72
   65
 73
    2
 40
12
 49
6
 49
-6
  0
LTYPE
  2
long_dashed_dotted
 70
   64
  3
------------- --- --------------
 72
   65
 73
    4
 40
15.25
 49
12
 49
-1.5
 49
0.25
 49
-1.5
  0
LTYPE
  2
long_dashed_double-dotted
 70
   64
  3
----------- --- --- ------------
 72
   65
 73
    6
 40
17
 49
12
 49
-1.5
 49
0.25
 49
-1.5
 49
0.25
 49
-1.5
  0
LTYPE
  2
long_dashed_triplicate-dotted
 70
   64
  3
--------- --- --- --- ----------
 72
   65
 73
    8
 40
18.75
 49
12
 49
-1.5
 49
0.25
 49
-1.5
 49
0.25
 49
-1.5
 49
0.25
 49
-1.5
  0
LTYPE
  2
dotted
 70
   64
  3
   -       -       -       -    
 72
   65
 73
    2
 40
1.75
 49
0.25
 49
-1.5
  0
LTYPE
  2
chain
 70
   64
  3
-------------- -- --------------
 72
   65
 73
    4
 40
18.5
 49
12
 49
-1.5
 49
3.5
 49
-1.5
  0
LTYPE
  2
chain_double_dash
 70
   64
  3
------------ -- -- -------------
 72
   65
 73
    6
 40
23.5
 49
12
 49
-1.5
 49
3.5
 49
-1.5
 49
3.5
 49
-1.5
  0
LTYPE
  2
dashed_dotted
 70
   64
  3
-----------     -     ----------
 72
   65
 73
    4
 40
9.25
 49
6
 49
-1.5
 49
0.25
 49
-1.5
  0
LTYPE
  2
double-dashed_dotted
 70
   64
  3
------   -----------   -   -----
 72
   65
 73
    6
 40
16.75
 49
6
 49
-1.5
 49
6
 49
-1.5
 49
0.25
 49
-1.5
  0
LTYPE
  2
dashed_double-dotted
 70
   64
  3
---------    -    -    ---------
 72
   65
 73
    6
 40
11
 49
6
 49
-1.5
 49
0.25
 49
-1.5
 49
0.25
 49
-1.5
  0
LTYPE
  2
double-dashed_double-dotted
 70
   64
  3
-----   ---------   -   -   ----
 72
   65
 73
    8
 40
18.5
 49
6
 49
-1.5
 49
6
 49
-1.5
 49
0.25
 49
-1.5
 49
0.25
 49
-1.5
  0
LTYPE
  2
dashed_triplicate-dotted
 70
   64
  3
-------    -    -    -    ------
 72
   65
 73
    8
 40
12.75
 49
6
 49
-1.5
 49
0.25
 49
-1.5
 49
0.25
 49
-1.5
 49
0.25
 49
-1.5
  0
LTYPE
  2
double-dashed_triplicate-dotted
 70
   64
  3
-----  ---------  -  -  -  -----
 72
   65
 73
   10
 40
20.25
 49
6
 49
-1.5
 49
6
 49
-1.5
 49
0.25
 49
-1.5
 49
0.25
 49
-1.5
 49
0.25
 49
-1.5
  0
LTYPE
  2
undefined
 70
   64
  3
--------------------------------
 72
   65
 73
    0
 40
0
  0
ENDTAB
  0
TABLE
  2
STYLE
  5
3
100
AcDbSymbolTable
 70
     1
  0
STYLE
  5
10
100
AcDbSymbolTableRecord
100
AcDbTextStyleTableRecord
  2
STANDARD
 70
     0
 40
0.0
 41
1.0
 50
0.0
 71
     0
 42
0.2
  3
txt
  4
bigfont.shx
  0
STYLE
  5
26
100
AcDbSymbolTableRecord
100
AcDbTextStyleTableRecord
  2
TATEGAKI
 70
    68
 40
0.0
 41
1.0
 50
0.0
 71
     0
 42
1.0
  3
txt
  4
bigfont.shx
  0
ENDTAB
  0
TABLE
  2
LAYER
 70
    2
  0
LAYER
  2
_0-0_
 70
   64
 62
    7
  6
CONTINUOUS
  0
LAYER
  2
ADD_LINE
 70
   64
 62
    7
  6
CONTINUOUS
  0
ENDTAB
  0
ENDSEC
  0
SECTION
  2
BLOCKS
  0
ENDSEC
  0
SECTION
  2
ENTITIES
  0
LINE
  8
_0-0_
  6
CONTINUOUS
 62
    7
 10
1011.8625048752793
 20
997.28371982180511
 11
1011.8625048752793
 21
1271.6193774654178
  0
LINE
  8
_0-0_
  6
CONTINUOUS
 62
    7
 10
1211.8625048752792
 20
817.28371982180511
 11
1511.8625048752792
 21
817.28371982180511
  0
LINE
  8
_0-0_
  6
CONTINUOUS
 62
    7
 10
1323.4101253464496
 20
817.28371982180511
 11
1503.4101253464496
 21
997.28371982180511
  0
LINE
  8
_0-0_
  6
CONTINUOUS
 62
    7
 10
1330.4811931583154
 20
817.28371982180511
 11
1510.4811931583145
 21
997.28371982180511
  0
LINE
  8
_0-0_
  6
CONTINUOUS
 62
    7
 10
1337.5522609701802
 20
817.28371982180511
 11
1511.8625048752801
 21
991.59396372690594
  0
LINE
  8
_0-0_
  6
CONTINUOUS
 62
    4
 10
1017.8625048752793
 20
1274.0435348204285
 11
1017.8625048752793
 21
1006.2837198218051
  0
LINE
  8
_0-0_
  6
CONTINUOUS
 62
    4
 10
1017.8625048752793
 20
1006.2837198218051
 11
1511.8625048752792
 21
1006.2837198218051
  0
LINE
  8
_0-0_
  6
CONTINUOUS
 62
    5
 10
1017.8625048752793
 20
1007.2837198218051
 11
1511.8625048752792
 21
1007.2837198218051
  0
LINE
  8
_0-0_
  6
CONTINUOUS
 62
    7
 10
1017.8625048752793
 20
1008.2837198218051
 11
1511.8625048752792
 21
1008.2837198218051
  0
LINE
  8
_0-0_
  6
CONTINUOUS
 62
    7
 10
1173.8540174542077
 20
1088.283719821806
 11
1017.8625048752793
 21
1088.283719821806
  0
LINE
  8
_0-0_
  6
CONTINUOUS
 62
    7
 10
1231.6509518115845
 20
1088.283719821806
 11
1311.6509518115845
 21
1008.283719821806
  0
LINE
  8
_0-0_
  6
CONTINUOUS
 62
    7
 10
1224.5798839997178
 20
1088.283719821806
 11
1304.5798839997178
 21
1008.283719821806
  0
LINE
  8
_0-0_
  6
CONTINUOUS
 62
    7
 10
1217.508816187853
 20
1088.2837198218051
 11
1297.508816187853
 21
1008.2837198218051
  0
LINE
  8
_0-0_
  6
CONTINUOUS
 62
    7
 10
1201.8540174542077
 20
1088.283719821806
 11
1511.8625048752792
 21
1088.283719821806
  0
LINE
  8
_0-0_
  6
CONTINUOUS
 62
    7
 10
1472.0672574150103
 20
1088.2837198218051
 11
1511.8625048752792
 21
1048.4884723615362
  0
LINE
  8
_0-0_
  6
CONTINUOUS
 62
    7
 10
1479.1383252268761
 20
1088.2837198218051
 11
1511.8625048752792
 21
1055.559540173402
  0
LINE
  8
_0-0_
  6
CONTINUOUS
 62
    7
 10
1486.2093930387409
 20
1088.283719821806
 11
1511.8625048752792
 21
1062.6306079852668
  0
LINE
  8
_0-0_
  6
CONTINUOUS
 62
    7
 10
1037.8625048752792
 20
1027.513725530953
 11
1057.0925105844281
 21
1008.2837198218051
  0
LINE
  8
_0-0_
  6
CONTINUOUS
 62
    7
 10
1037.8625048752792
 20
1020.4426577190873
 11
1050.0214427725614
 21
1008.283719821806
  0
LINE
  8
_0-0_
  6
CONTINUOUS
 62
    7
 10
1037.8625048752792
 20
1013.3715899072224
 11
1042.9503749606965
 21
1008.283719821806
  0
LINE
  8
_0-0_
  6
CONTINUOUS
 62
    5
 10
1197.8540174542077
 20
1084.783719821806
 11
1197.8540174542077
 21
1008.283719821806
  0
LINE
  8
_0-0_
  6
CONTINUOUS
 62
    5
 10
1177.8540174542077
 20
1084.783719821806
 11
1197.8540174542077
 21
1084.783719821806
  0
LINE
  8
_0-0_
  6
CONTINUOUS
 62
    5
 10
1177.8540174542077
 20
1008.283719821806
 11
1177.8540174542077
 21
1084.783719821806
  0
LINE
  8
_0-0_
  6
CONTINUOUS
 62
    5
 10
1176.8540174542077
 20
1086.283719821806
 11
1198.8540174542077
 21
1086.283719821806
  0
LINE
  8
_0-0_
  6
CONTINUOUS
 62
    5
 10
1176.8540174542077
 20
1085.283719821806
 11
1176.8540174542077
 21
1086.283719821806
  0
LINE
  8
_0-0_
  6
CONTINUOUS
 62
    5
 10
1178.8540174542077
 20
1085.283719821806
 11
1176.8540174542077
 21
1085.283719821806
  0
LINE
  8
_0-0_
  6
CONTINUOUS
 62
    5
 10
1178.8540174542077
 20
1084.783719821806
 11
1178.8540174542077
 21
1085.283719821806
  0
LINE
  8
_0-0_
  6
CONTINUOUS
 62
    5
 10
1176.8540174542077
 20
1084.783719821806
 11
1178.8540174542077
 21
1084.783719821806
  0
LINE
  8
_0-0_
  6
CONTINUOUS
 62
    5
 10
1176.8540174542077
 20
1073.283719821806
 11
1176.8540174542077
 21
1084.783719821806
  0
LINE
  8
_0-0_
  6
CONTINUOUS
 62
    5
 10
1177.3540174542077
 20
1073.283719821806
 11
1176.8540174542077
 21
1073.283719821806
  0
LINE
  8
_0-0_
  6
CONTINUOUS
 62
    5
 10
1176.8540174542077
 20
1072.283719821806
 11
1177.3540174542077
 21
1073.283719821806
  0
LINE
  8
_0-0_
  6
CONTINUOUS
 62
    5
 10
1176.8540174542077
 20
1059.283719821806
 11
1176.8540174542077
 21
1072.283719821806
  0
LINE
  8
_0-0_
  6
CONTINUOUS
 62
    5
 10
1177.3540174542077
 20
1059.283719821806
 11
1176.8540174542077
 21
1059.283719821806
  0
LINE
  8
_0-0_
  6
CONTINUOUS
 62
    5
 10
1176.8540174542077
 20
1058.283719821806
 11
1177.3540174542077
 21
1059.283719821806
  0
LINE
  8
_0-0_
  6
CONTINUOUS
 62
    5
 10
1175.8540174542077
 20
1058.283719821806
 11
1176.8540174542077
 21
1058.283719821806
  0
LINE
  8
_0-0_
  6
CONTINUOUS
 62
    5
 10
1175.8540174542077
 20
1084.783719821806
 11
1175.8540174542077
 21
1058.283719821806
  0
LINE
  8
_0-0_
  6
CONTINUOUS
 62
    5
 10
1175.3540174542077
 20
1084.783719821806
 11
1175.8540174542077
 21
1084.783719821806
  0
LINE
  8
_0-0_
  6
CONTINUOUS
 62
    5
 10
1175.3540174542077
 20
1086.783719821806
 11
1175.3540174542077
 21
1084.783719821806
  0
LINE
  8
_0-0_
  6
CONTINUOUS
 62
    5
 10
1200.3540174542077
 20
1086.783719821806
 11
1175.3540174542077
 21
1086.783719821806
  0
LINE
  8
_0-0_
  6
CONTINUOUS
 62
    5
 10
1200.3540174542077
 20
1084.783719821806
 11
1200.3540174542077
 21
1086.783719821806
  0
LINE
  8
_0-0_
  6
CONTINUOUS
 62
    5
 10
1199.8540174542077
 20
1084.783719821806
 11
1200.3540174542077
 21
1084.783719821806
  0
LINE
  8
_0-0_
  6
CONTINUOUS
 62
    5
 10
1199.8540174542077
 20
1058.283719821806
 11
1199.8540174542077
 21
1084.783719821806
  0
LINE
  8
_0-0_
  6
CONTINUOUS
 62
    5
 10
1198.8540174542077
 20
1058.283719821806
 11
1199.8540174542077
 21
1058.283719821806
  0
LINE
  8
_0-0_
  6
CONTINUOUS
 62
    5
 10
1198.3540174542077
 20
1059.283719821806
 11
1198.8540174542077
 21
1058.283719821806
  0
LINE
  8
_0-0_
  6
CONTINUOUS
 62
    5
 10
1198.8540174542077
 20
1059.283719821806
 11
1198.3540174542077
 21
1059.283719821806
  0
LINE
  8
_0-0_
  6
CONTINUOUS
 62
    5
 10
1198.8540174542077
 20
1072.283719821806
 11
1198.8540174542077
 21
1059.283719821806
  0
LINE
  8
_0-0_
  6
CONTINUOUS
 62
    5
 10
1198.3540174542077
 20
1073.283719821806
 11
1198.8540174542077
 21
1072.283719821806
  0
LINE
  8
_0-0_
  6
CONTINUOUS
 62
    5
 10
1198.8540174542077
 20
1073.283719821806
 11
1198.3540174542077
 21
1073.283719821806
  0
LINE
  8
_0-0_
  6
CONTINUOUS
 62
    5
 10
1198.8540174542077
 20
1084.783719821806
 11
1198.8540174542077
 21
1073.283719821806
  0
LINE
  8
_0-0_
  6
CONTINUOUS
 62
    5
 10
1196.8540174542077
 20
1084.783719821806
 11
1198.8540174542077
 21
1084.783719821806
  0
LINE
  8
_0-0_
  6
CONTINUOUS
 62
    5
 10
1196.8540174542077
 20
1085.283719821806
 11
1196.8540174542077
 21
1084.783719821806
  0
LINE
  8
_0-0_
  6
CONTINUOUS
 62
    5
 10
1198.8540174542077
 20
1085.283719821806
 11
1196.8540174542077
 21
1085.283719821806
  0
LINE
  8
_0-0_
  6
CONTINUOUS
 62
    5
 10
1198.8540174542077
 20
1086.283719821806
 11
1198.8540174542077
 21
1085.283719821806
  0
LINE
  8
_0-0_
  6
CONTINUOUS
 62
    5
 10
1187.8540174542077
 20
1087.783719821806
 11
1200.3540174542077
 21
1087.783719821806
  0
LINE
  8
_0-0_
  6
CONTINUOUS
 62
    5
 10
1175.3540174542077
 20
1087.783719821806
 11
1187.8540174542077
 21
1087.783719821806
  0
LINE
  8
_0-0_
  6
CONTINUOUS
 62
    5
 10
1174.8540174542077
 20
1088.283719821806
 11
1175.3540174542077
 21
1087.783719821806
  0
LINE
  8
_0-0_
  6
CONTINUOUS
 62
    5
 10
1173.8540174542077
 20
1088.283719821806
 11
1174.8540174542077
 21
1088.283719821806
  0
LINE
  8
_0-0_
  6
CONTINUOUS
 62
    5
 10
1173.8540174542077
 20
1085.283719821806
 11
1173.8540174542077
 21
1088.283719821806
  0
LINE
  8
_0-0_
  6
CONTINUOUS
 62
    5
 10
1174.3540174542077
 20
1085.283719821806
 11
1173.8540174542077
 21
1085.283719821806
  0
LINE
  8
_0-0_
  6
CONTINUOUS
 62
    5
 10
1174.3540174542077
 20
1070.283719821806
 11
1174.3540174542077
 21
1085.283719821806
  0
LINE
  8
_0-0_
  6
CONTINUOUS
 62
    5
 10
1173.8540174542004
 20
1070.283719821806
 11
1174.3540174542077
 21
1070.283719821806
  0
LINE
  8
_0-0_
  6
CONTINUOUS
 62
    5
 10
1173.8540174542077
 20
1068.283719821806
 11
1173.8540174542004
 21
1070.283719821806
  0
LINE
  8
_0-0_
  6
CONTINUOUS
 62
    5
 10
1175.3540174542077
 20
1068.283719821806
 11
1173.8540174542077
 21
1068.283719821806
  0
LINE
  8
_0-0_
  6
CONTINUOUS
 62
    5
 10
1175.3540174542077
 20
1086.783719821806
 11
1175.3540174542077
 21
1068.283719821806
  0
LINE
  8
_0-0_
  6
CONTINUOUS
 62
    5
 10
1200.3540174542077
 20
1086.783719821806
 11
1175.3540174542077
 21
1086.783719821806
  0
LINE
  8
_0-0_
  6
CONTINUOUS
 62
    5
 10
1200.3540174542077
 20
1068.283719821806
 11
1200.3540174542077
 21
1086.783719821806
  0
LINE
  8
_0-0_
  6
CONTINUOUS
 62
    5
 10
1201.8540174542077
 20
1068.283719821806
 11
1200.3540174542077
 21
1068.283719821806
  0
LINE
  8
_0-0_
  6
CONTINUOUS
 62
    5
 10
1201.8540174542131
 20
1070.283719821806
 11
1201.8540174542077
 21
1068.283719821806
  0
LINE
  8
_0-0_
  6
CONTINUOUS
 62
    5
 10
1201.3540174542077
 20
1070.283719821806
 11
1201.8540174542131
 21
1070.283719821806
  0
LINE
  8
_0-0_
  6
CONTINUOUS
 62
    5
 10
1201.3540174542077
 20
1085.283719821806
 11
1201.3540174542077
 21
1070.283719821806
  0
LINE
  8
_0-0_
  6
CONTINUOUS
 62
    5
 10
1201.8540174542077
 20
1085.283719821806
 11
1201.3540174542077
 21
1085.283719821806
  0
LINE
  8
_0-0_
  6
CONTINUOUS
 62
    5
 10
1201.8540174542077
 20
1088.283719821806
 11
1201.8540174542077
 21
1085.283719821806
  0
LINE
  8
_0-0_
  6
CONTINUOUS
 62
    5
 10
1200.8540174542077
 20
1088.283719821806
 11
1201.8540174542077
 21
1088.283719821806
  0
LINE
  8
_0-0_
  6
CONTINUOUS
 62
    5
 10
1200.3540174542077
 20
1087.783719821806
 11
1200.8540174542077
 21
1088.283719821806
  0
LINE
  8
_0-0_
  6
CONTINUOUS
 62
    5
 10
1181.0681025528147
 20
1008.283719821806
 11
1181.0681025528147
 21
1084.783719821806
  0
LINE
  8
_0-0_
  6
CONTINUOUS
 62
    5
 10
1184.8181025528147
 20
1008.283719821806
 11
1184.8181025528147
 21
1084.783719821806
  0
LINE
  8
_0-0_
  6
CONTINUOUS
 62
    5
 10
1188.5681025528147
 20
1008.283719821806
 11
1188.5681025528147
 21
1084.783719821806
  0
LINE
  8
_0-0_
  6
CONTINUOUS
 62
    5
 10
1192.3181025528147
 20
1008.283719821806
 11
1192.3181025528147
 21
1084.783719821806
  0
LINE
  8
_0-0_
  6
CONTINUOUS
 62
    5
 10
1196.0681025528147
 20
1008.283719821806
 11
1196.0681025528147
 21
1084.783719821806
  0
LINE
  8
_0-0_
  6
CONTINUOUS
 62
    5
 10
1037.8625048752792
 20
1088.283719821806
 11
1037.8625048752792
 21
1008.283719821806
  0
LINE
  8
_0-0_
  6
CONTINUOUS
 62
    5
 10
1017.8625048752793
 20
1088.283719821806
 11
1037.8625048752792
 21
1088.283719821806
  0
LINE
  8
_0-0_
  6
CONTINUOUS
 62
    5
 10
1017.8625048752793
 20
1013.6819931105649
 11
1023.2607781640392
 21
1008.283719821806
  0
LINE
  8
_0-0_
  6
CONTINUOUS
 62
    5
 10
1017.8625048752803
 20
1019.3388473600564
 11
1028.9176324135306
 21
1008.2837198218051
  0
LINE
  8
_0-0_
  6
CONTINUOUS
 62
    5
 10
1017.8625048752793
 20
1024.9957016095489
 11
1034.5744866630221
 21
1008.283719821806
  0
LINE
  8
_0-0_
  6
CONTINUOUS
 62
    5
 10
1017.8625048752793
 20
1030.6525558590422
 11
1037.8625048752792
 21
1010.6525558590422
  0
LINE
  8
_0-0_
  6
CONTINUOUS
 62
    5
 10
1017.8625048752793
 20
1036.3094101085346
 11
1037.8625048752792
 21
1016.3094101085346
  0
LINE
  8
_0-0_
  6
CONTINUOUS
 62
    5
 10
1017.8625048752793
 20
1041.9662643580261
 11
1037.8625048752792
 21
1021.966264358027
  0
LINE
  8
_0-0_
  6
CONTINUOUS
 62
    5
 10
1017.8625048752803
 20
1047.6231186075195
 11
1037.8625048752792
 21
1027.6231186075195
  0
LINE
  8
_0-0_
  6
CONTINUOUS
 62
    5
 10
1017.8625048752793
 20
1053.2799728570119
 11
1037.8625048752792
 21
1033.2799728570119
  0
LINE
  8
_0-0_
  6
CONTINUOUS
 62
    5
 10
1017.8625048752793
 20
1058.9368271065025
 11
1037.8625048752801
 21
1038.9368271065016
  0
LINE
  8
_0-0_
  6
CONTINUOUS
 62
    5
 10
1017.8625048752803
 20
1064.593681355994
 11
1037.8625048752792
 21
1044.5936813559949
  0
LINE
  8
_0-0_
  6
CONTINUOUS
 62
    5
 10
1017.8625048752793
 20
1070.2505356054883
 11
1037.8625048752801
 21
1050.2505356054874
  0
LINE
  8
_0-0_
  6
CONTINUOUS
 62
    5
 10
1017.8625048752793
 20
1075.9073898549816
 11
1037.8625048752792
 21
1055.9073898549816
  0
LINE
  8
_0-0_
  6
CONTINUOUS
 62
    5
 10
1017.8625048752803
 20
1081.564244104474
 11
1037.8625048752801
 21
1061.564244104474
  0
LINE
  8
_0-0_
  6
CONTINUOUS
 62
    5
 10
1017.8625048752793
 20
1087.2210983539665
 11
1037.8625048752792
 21
1067.2210983539665
  0
LINE
  8
_0-0_
  6
CONTINUOUS
 62
    5
 10
1022.4567376569313
 20
1088.2837198218051
 11
1037.8625048752801
 21
1072.8779526034571
  0
LINE
  8
_0-0_
  6
CONTINUOUS
 62
    5
 10
1028.1135919064245
 20
1088.283719821806
 11
1037.8625048752792
 21
1078.5348068529513
  0
LINE
  8
_0-0_
  6
CONTINUOUS
 62
    5
 10
1033.7704461559169
 20
1088.2837198218051
 11
1037.8625048752792
 21
1084.1916611024419
  0
LINE
  8
_0-0_
  6
CONTINUOUS
 62
    7
 10
1011.8625048752793
 20
997.28371982180511
 11
1511.8625048752792
 21
997.28371982180511
  0
LINE
  8
_0-0_
  6
CONTINUOUS
 62
    7
 10
1706.8525777203677
 20
1633.3565543671132
 11
1706.8525777203677
 21
167.53106997205509
  0
LINE
  8
_0-0_
  6
CONTINUOUS
 62
    7
 10
672.13606690525205
 20
567.53106997205509
 11
1706.8525777203677
 21
567.53106997205509
  0
LINE
  8
_0-0_
  6
CONTINUOUS
 62
    7
 10
672.13606690525205
 20
167.53106997205509
 11
1706.8525777203677
 21
167.53106997205509
  0
LINE
  8
_0-0_
  6
CONTINUOUS
 62
    7
 10
672.13606690525205
 20
627.53106997205509
 11
1706.8525777203677
 21
627.53106997205509
  0
LINE
  8
_0-0_
  6
CONTINUOUS
 62
    7
 10
1189.4943223128093
 20
627.53106997205509
 11
1189.4943223128093
 21
167.53106997205509
  0
LINE
  8
_0-0_
  6
CONTINUOUS
 62
    7
 10
672.13606690525205
 20
1633.3565543671132
 11
672.13606690525205
 21
167.53106997205509
  0
LINE
  8
_0-0_
  6
CONTINUOUS
 62
    4
 10
1110.0951668402222
 20
395.81267592005338
 11
1110.0951668402222
 21
252.65735719276404
  0
LINE
  8
_0-0_
  6
CONTINUOUS
 62
    7
 10
1096.5951668402222
 20
252.65735719276404
 11
1096.5951668402222
 21
390.35832187127949
  0
LINE
  8
_0-0_
  6
CONTINUOUS
 62
    4
 10
1079.0726214463748
 20
427.93746208632751
 11
1110.0951668402222
 21
395.81267592005338
  0
LINE
  8
_0-0_
  6
CONTINUOUS
 62
    7
 10
1073.1504468372314
 20
414.63604013270947
 11
1096.5951668402222
 21
390.35832187127949
  0
LINE
  8
_0-0_
  6
CONTINUOUS
 62
    7
 10
759.09516684022503
 20
334.26867077688462
 11
847.34774045619281
 21
422.5212443928524
  0
LINE
  8
_0-0_
  6
CONTINUOUS
 62
    7
 10
759.0951668402223
 20
350.17857335357917
 11
831.97467708197121
 21
423.05808359532807
  0
LINE
  8
_0-0_
  6
CONTINUOUS
 62
    7
 10
759.0951668402223
 20
366.08847593027554
 11
816.6016137077487
 21
423.59492279780102
  0
TEXT
  8
_0-0_
 62
    7
 10
906.73245032900388
 20
575.67973412101151
 40
40
 41
1
 50
0
  1
Ａ
  0
TEXT
  8
_0-0_
 62
    7
 10
1429.6891920142089
 20
576.02721287347708
 40
40
 41
1
 50
0
  1
Ｂ
  0
LINE
  8
_0-0_
  6
CONTINUOUS
 62
    7
 10
861.86250487528116
 20
1020.4164736659916
 11
1011.8625048752793
 21
1170.4164736659916
  0
LINE
  8
_0-0_
  6
CONTINUOUS
 62
    7
 10
861.86250487527934
 20
1027.4875414778564
 11
1011.8625048752812
 21
1177.4875414778564
  0
LINE
  8
_0-0_
  6
CONTINUOUS
 62
    7
 10
861.86250487527934
 20
1034.5586092897213
 11
1011.8625048752793
 21
1184.5586092897213
  0
LINE
  8
_0-0_
  6
CONTINUOUS
 62
    7
 10
1001.4426293183943
 20
1282.4094744704973
 11
1011.8625048752793
 21
1271.6193774654178
  0
LINE
  8
_0-0_
  6
CONTINUOUS
 62
    4
 10
1004.0747069224591
 20
1288.3212175609945
 11
1017.8625048752793
 21
1274.0435348204285
  0
LINE
  8
_0-0_
  6
CONTINUOUS
 62
    7
 10
1211.8625048752792
 20
817.28371982180511
 11
1211.8625048752792
 21
787.28371982180511
  0
LINE
  8
_0-0_
  6
CONTINUOUS
 62
    7
 10
861.86250487527934
 20
808.28443931002607
 11
1050.8617853870592
 21
997.28371982180511
  0
LINE
  8
_0-0_
  6
CONTINUOUS
 62
    7
 10
861.86250487527934
 20
801.21337149816122
 11
1057.932853198924
 21
997.28371982180511
  0
LINE
  8
_0-0_
  6
CONTINUOUS
 62
    7
 10
861.86250487528116
 20
794.14230368629637
 11
1065.0039210107889
 21
997.28371982180511
  0
LINE
  8
_0-0_
  6
CONTINUOUS
 62
    7
 10
1067.1359553667544
 20
787.28371982180511
 11
1277.1359553667544
 21
997.28371982180511
  0
LINE
  8
_0-0_
  6
CONTINUOUS
 62
    7
 10
1074.2070231786192
 20
787.28371982180511
 11
1284.2070231786192
 21
997.28371982180511
  0
LINE
  8
_0-0_
  6
CONTINUOUS
 62
    7
 10
1081.2780909904841
 20
787.2837198218042
 11
1291.2780909904841
 21
997.28371982180511
  0
LINE
  8
_0-0_
  6
CONTINUOUS
 62
    7
 10
1608.1512361234654
 20
240.58219716755434
 11
1288.6361588604523
 21
240.58219716755434
  0
LINE
  8
_0-0_
  6
CONTINUOUS
 62
    7
 10
1288.6361588604523
 20
240.58219716755707
 11
1288.6361588604523
 21
472.63089331697324
  0
LINE
  8
_0-0_
  6
CONTINUOUS
 62
    7
 10
1347.1361588604523
 20
308.59971001314011
 11
1390.4036717060371
 21
265.33219716755707
  0
LINE
  8
_0-0_
  6
CONTINUOUS
 62
    5
 10
1347.1361588604523
 20
445.33219716755889
 11
1347.1361588604523
 21
265.33219716755889
  0
LINE
  8
_0-0_
  6
CONTINUOUS
 62
    5
 10
1302.1361588604523
 20
445.33219716755889
 11
1347.1361588604523
 21
445.33219716755889
  0
LINE
  8
_0-0_
  6
CONTINUOUS
 62
    5
 10
1302.1361588604523
 20
277.47831206726664
 11
1314.2822737601618
 21
265.33219716755889
  0
LINE
  8
_0-0_
  6
CONTINUOUS
 62
    5
 10
1302.1361588604541
 20
290.20623412862301
 11
1327.0101958215182
 21
265.33219716755707
  0
LINE
  8
_0-0_
  6
CONTINUOUS
 62
    5
 10
1302.1361588604523
 20
302.93415618997938
 11
1339.7381178828737
 21
265.33219716755889
  0
LINE
  8
_0-0_
  6
CONTINUOUS
 62
    5
 10
1302.1361588604523
 20
315.66207825134029
 11
1347.1361588604523
 21
270.66207825134029
  0
LINE
  8
_0-0_
  6
CONTINUOUS
 62
    5
 10
1302.1361588604523
 20
328.39000031269848
 11
1347.1361588604523
 21
283.39000031269848
  0
LINE
  8
_0-0_
  6
CONTINUOUS
 62
    5
 10
1302.1361588604523
 20
341.11792237405484
 11
1347.1361588604523
 21
296.11792237405666
  0
LINE
  8
_0-0_
  6
CONTINUOUS
 62
    5
 10
1302.1361588604541
 20
353.84584443541485
 11
1347.1361588604523
 21
308.84584443541485
  0
LINE
  8
_0-0_
  6
CONTINUOUS
 62
    5
 10
1302.1361588604523
 20
366.57376649677121
 11
1347.1361588604523
 21
321.57376649677121
  0
LINE
  8
_0-0_
  6
CONTINUOUS
 62
    5
 10
1302.1361588604523
 20
379.30168855812667
 11
1347.1361588604541
 21
334.30168855812576
  0
LINE
  8
_0-0_
  6
CONTINUOUS
 62
    5
 10
1302.1361588604541
 20
392.02961061948213
 11
1347.1361588604523
 21
347.02961061948304
  0
LINE
  8
_0-0_
  6
CONTINUOUS
 62
    5
 10
1302.1361588604523
 20
404.75753268084304
 11
1347.1361588604541
 21
359.75753268084213
  0
LINE
  8
_0-0_
  6
CONTINUOUS
 62
    5
 10
1302.1361588604523
 20
417.48545474220305
 11
1347.1361588604523
 21
372.48545474220396
  0
LINE
  8
_0-0_
  6
CONTINUOUS
 62
    5
 10
1302.1361588604541
 20
430.21337680356214
 11
1347.1361588604541
 21
385.21337680356214
  0
LINE
  8
_0-0_
  6
CONTINUOUS
 62
    5
 10
1302.1361588604523
 20
442.94129886492033
 11
1347.1361588604523
 21
397.94129886491942
  0
LINE
  8
_0-0_
  6
CONTINUOUS
 62
    5
 10
1312.4731826191692
 20
445.33219716755707
 11
1347.1361588604541
 21
410.66922092627397
  0
LINE
  8
_0-0_
  6
CONTINUOUS
 62
    5
 10
1325.2011046805292
 20
445.33219716755798
 11
1347.1361588604523
 21
423.39714298763488
  0
LINE
  8
_0-0_
  6
CONTINUOUS
 62
    5
 10
1337.9290267418874
 20
445.33219716755707
 11
1347.1361588604523
 21
436.12506504899034
  0
LINE
  8
_0-0_
  6
CONTINUOUS
 62
    7
 10
1347.1361588604523
 20
340.41951516653376
 11
1422.2234768594326
 21
265.33219716755707
  0
LINE
  8
_0-0_
  6
CONTINUOUS
 62
    7
 10
1347.1361588604523
 20
324.50961258983648
 11
1406.3135742827353
 21
265.33219716755707
  0
LINE
  8
_0-0_
  6
CONTINUOUS
 62
    4
 10
1302.1361588604523
 20
472.63089331697324
 11
1302.1361588604523
 21
260.83219716755707
  0
LINE
  8
_0-0_
  6
CONTINUOUS
 62
    7
 10
1608.1512361234654
 20
445.33219716755889
 11
1302.1361588604523
 21
445.33219716755889
  0
LINE
  8
_0-0_
  6
CONTINUOUS
 62
    7
 10
1302.1361588604523
 20
265.33219716755707
 11
1608.1512361234654
 21
265.33219716755707
  0
LINE
  8
_0-0_
  6
CONTINUOUS
 62
    5
 10
1302.1361588604523
 20
263.08219716755707
 11
1608.1512361234654
 21
263.08219716755707
  0
LINE
  8
_0-0_
  6
CONTINUOUS
 62
    4
 10
1302.1361588604523
 20
260.83219716755707
 11
1608.1512361234654
 21
260.83219716755707
  0
LINE
  8
_0-0_
  6
CONTINUOUS
 62
    7
 10
1473.884540011959
 20
180.58219716755707
 11
1533.8845400119571
 21
240.58219716755434
  0
LINE
  8
_0-0_
  6
CONTINUOUS
 62
    7
 10
1489.7944425886526
 20
180.58219716755707
 11
1549.7944425886508
 21
240.58219716755434
  0
LINE
  8
_0-0_
  6
CONTINUOUS
 62
    7
 10
1505.7043451653499
 20
180.58219716755707
 11
1565.7043451653481
 21
240.58219716755434
  0
LINE
  8
_0-0_
  6
CONTINUOUS
 62
    7
 10
1228.6361588604523
 20
412.63089331697415
 11
1288.6361588604523
 21
472.63089331697324
  0
LINE
  8
_0-0_
  6
CONTINUOUS
 62
    7
 10
1228.6361588604523
 20
428.54079589367143
 11
1272.726256283755
 21
472.63089331697324
  0
LINE
  8
_0-0_
  6
CONTINUOUS
 62
    7
 10
1228.6361588604523
 20
444.45069847036689
 11
1256.8163537070604
 21
472.63089331697324
  0
LINE
  8
_0-0_
  6
CONTINUOUS
 62
    7
 10
1329.8716798615624
 20
420.76635304552224
 11
1358.3065667508054
 21
470.01702184516603
  0
LINE
  8
_0-0_
  6
CONTINUOUS
 62
    7
 10
1565.7043451653481
 20
240.58219716755434
 11
1609.1972449573877
 21
315.91410937586829
  0
POINT
  8
_0-0_
 62
    7
 10
1565.7043451653481
 20
240.58219716755434
  0
TEXT
  8
_0-0_
 62
    7
 10
1614.5610507090978
 20
304.26529721175052
 40
21.617968000000001
 41
1
 50
0
  1
ﾌﾟﾗｲﾏｰ
  0
TEXT
  8
_0-0_
 62
    7
 10
1581.2555588177711
 20
365.12387265058373
 40
21.617968000000001
 41
1
 50
0
  1
ｳﾚﾀﾝ防水
  0
LINE
  8
_0-0_
  6
CONTINUOUS
 62
    7
 10
1509.2567487405031
 20
252.9718800302237
 11
1578.3000685123498
 21
372.55841779828756
  0
POINT
  8
_0-0_
 62
    7
 10
1509.2567487405031
 20
252.9718800302237
  0
LINE
  8
_0-0_
  6
CONTINUOUS
 62
    7
 10
1470.0369167690078
 20
263.08219716755707
 11
1583.505813201873
 21
459.61609086805061
  0
POINT
  8
_0-0_
 62
    7
 10
1470.0369167690078
 20
263.08219716755707
  0
TEXT
  8
_0-0_
 62
    7
 10
1585.7562193693102
 20
452.9991964272142
 40
21.617968000000001
 41
1
 50
0
  1
絶縁ﾌｨﾙﾑ
  0
POINT
  8
_0-0_
 62
    7
 10
1329.8716798615624
 20
420.76635304552224
  0
POINT
  8
_0-0_
 62
    7
 10
1468.8536928160393
 20
420.76635304552224
  0
LINE
  8
_0-0_
  6
CONTINUOUS
 62
    7
 10
1468.8536928160393
 20
420.76635304552224
 11
1510.7530554618897
 21
493.33817795288928
  0
TEXT
  8
_0-0_
 62
    7
 10
1511.9230447040864
 20
486.60275669151474
 40
21.617968000000001
 41
1
 50
0
  1
保護ｺﾝｸﾘｰﾄ
  0
POINT
  8
_0-0_
 62
    7
 10
1312.4731826191692
 20
445.33219716755707
  0
LINE
  8
_0-0_
  6
CONTINUOUS
 62
    7
 10
1302.1361588604523
 20
463.23644751670167
 11
1338.4445413006106
 21
526.12441064369727
  0
POINT
  8
_0-0_
 62
    7
 10
1302.1361588604523
 20
463.23644751670167
  0
TEXT
  8
_0-0_
 62
    7
 10
1341.3184676292485
 20
520.79728082358474
 40
21.617968000000001
 41
1
 50
0
  1
ﾄｯﾌﾟｺｰﾄ(露出部のみ)
  0
POINT
  8
_0-0_
 62
    7
 10
1325.0555892055208
 20
1001.6118649760376
  0
LINE
  8
_0-0_
  6
CONTINUOUS
 62
    7
 10
1325.0555892055208
 20
1001.6118649760376
 11
1418.3935696264934
 21
1163.2779893410309
  0
LINE
  8
_0-0_
  6
CONTINUOUS
 62
    7
 10
1185.0970970609333
 20
1077.0814115132955
 11
1267.1487112679024
 21
1219.1989761628067
  0
POINT
  8
_0-0_
 62
    7
 10
1185.0970970609333
 20
1077.0814115132955
  0
TEXT
  8
_0-0_
 62
    7
 10
1359.7596148176062
 20
462.4144955796894
 40
21.617968000000001
 41
1
 50
0
  1
成型緩衝材
  0
LINE
  8
_0-0_
  6
CONTINUOUS
 62
    7
 10
1026.6137576172878
 20
1081.161496286086
 11
1068.5593634721854
 21
1153.8134167810269
  0
POINT
  8
_0-0_
 62
    7
 10
1026.6137576172878
 20
1081.161496286086
  0
TEXT
  8
_0-0_
 62
    7
 10
1272.4793039274427
 20
1204.4520859288862
 40
30
 41
1
 50
0
  1
伸縮目地
  0
TEXT
  8
_0-0_
 62
    7
 10
1057.4162651297665
 20
1158.8148765696444
 40
30
 41
1
 50
0
  1
成型緩衝材
  0
TEXT
  8
_0-0_
 62
    7
 10
1422.8634896192389
 20
1151.1705845777053
 40
30
 41
1
 50
0
  1
防水層
  0
CIRCLE
  8
_0-0_
  6
DASHED2
 62
    1
 10
1017.8625048752803
 20
1047.6231186075195
 40
80
  0
CIRCLE
  8
_0-0_
  6
DASHED2
 62
    1
 10
940.25894667542173
 20
1284.7795231726652
 40
100
  0
TEXT
  8
_0-0_
 62
    7
 10
976.73838311311749
 20
1109.3532184702656
 40
24
 41
1
 50
0
  1
Ｂ
  0
TEXT
  8
_0-0_
 62
    7
 10
922.38363584587034
 20
1375.5189253265446
 40
24
 41
1
 50
0
  1
Ａ
  0
LINE
  8
_0-0_
  6
CONTINUOUS
 62
    7
 10
861.86250487528025
 20
1246.6906436456868
 11
901.08587092682149
 21
1285.914009697228
  0
LINE
  8
_0-0_
  6
CONTINUOUS
 62
    7
 10
861.86250487527934
 20
1253.7617114575507
 11
894.25339831605663
 21
1286.152604898328
  0
LINE
  8
_0-0_
  6
CONTINUOUS
 62
    7
 10
861.86250487527934
 20
1260.8327792694156
 11
887.42092570529087
 21
1286.3912000994271
  0
LINE
  8
_0-0_
  6
CONTINUOUS
 62
    4
 10
861.86250487527934
 20
1288.1097255186444
 11
861.86250487527934
 21
1287.2837198218042
  0
LINE
  8
_0-0_
  6
CONTINUOUS
 62
    7
 10
861.86250487527934
 20
1287.2837198218051
 11
861.86250487527934
 21
787.28371982180511
  0
LINE
  8
_0-0_
  6
CONTINUOUS
 62
    7
 10
861.86250487527934
 20
1287.2837198218051
 11
1001.4426293183943
 21
1282.4094744704973
  0
ARC
  8
_0-0_
  6
CONTINUOUS
 62
    4
 10
866.86250487527934
 20
1288.1097255186444
 40
5
 50
87.999999999996774
 51
180
  0
LINE
  8
_0-0_
  6
CONTINUOUS
 62
    4
 10
867.03700235879217
 20
1293.1066796537409
 11
1004.0747069224591
 21
1288.3212175609945
  0
LINE
  8
_0-0_
  6
CONTINUOUS
 62
    7
 10
759.0951668402223
 20
425.6030921731483
 11
759.0951668402223
 21
252.65735719276404
  0
LINE
  8
_0-0_
  6
CONTINUOUS
 62
    7
 10
759.0951668402223
 20
425.6030921731483
 11
1073.1504468372314
 21
414.63604013270947
  0
LINE
  8
_0-0_
  6
CONTINUOUS
 62
    4
 10
759.0951668402223
 20
428.75601788327936
 11
759.0951668402223
 21
425.6030921731483
  0
LINE
  8
_0-0_
  6
CONTINUOUS
 62
    4
 10
769.44416180724704
 20
438.7499261534706
 11
1079.0726214463748
 21
427.93746208632751
  0
ARC
  8
_0-0_
  6
CONTINUOUS
 62
    4
 10
769.0951668402223
 20
428.75601788327936
 40
10
 50
88.000000000000028
 51
180.00000000000006
  0
LINE
  8
_0-0_
  6
CONTINUOUS
 62
    7
 10
1124.4670144048609
 20
439.4193768810805
 11
1084.8728068387263
 21
402.49718100199505
  0
POINT
  8
_0-0_
 62
    7
 10
1084.8728068387263
 20
402.49718100199505
  0
TEXT
  8
_0-0_
 62
    7
 10
1099.3311947587681
 20
441.9790529622328
 40
21.617968000000001
 41
1
 50
0
  1
面取り
  0
LINE
  8
_0-0_
  6
CONTINUOUS
 62
    7
 10
672.13606690525205
 20
1633.3565543671132
 11
1706.8525777203677
 21
1633.3565543671132
  0
LINE
  8
_0-0_
  6
CONTINUOUS
 62
    7
 10
672.13606690525205
 20
1553.3565543671132
 11
1706.8525777203677
 21
1553.3565543671132
  0
LINE
  8
_0-0_
  6
CONTINUOUS
 62
    7
 10
672.13606690525205
 20
1473.3565543671132
 11
1706.8525777203677
 21
1473.3565543671132
  0
LINE
  8
_0-0_
  6
CONTINUOUS
 62
    7
 10
1189.4943223128093
 20
1633.3565543671132
 11
1189.4943223128093
 21
1473.3565543671132
  0
TEXT
  8
_0-0_
 62
    7
 10
696.13606690525205
 20
1497.3565543671132
 40
20
 41
1
 50
0
  1
施工部位：パラペット
  0
TEXT
  8
_0-0_
 62
    7
 10
1213.4943223128093
 20
1577.3565543671132
 40
20
 41
1
 50
0
  1
構造：ＲＣ造
  0
TEXT
  8
_0-0_
 62
    7
 10
1213.4943223128093
 20
1497.3565543671132
 40
20
 41
1
 50
0
  1
下地：コンクリートスラブ
  0
TEXT
  8
_0-0_
 62
    7
 10
696.13606690525205
 20
1577.3565543671132
 40
20
 41
1
 50
0
  1
図面番号：UPM-10C-para-01
  0
ENDSEC
  0
EOF
