  0
SECTION
  2
HEADER
  9
$ACADVER
  1
AC1009
  9
$INSBASE
 10
0
 20
0
 30
0
  9
$EXTMIN
 10
0
 20
0
  9
$EXTMAX
 10
2378
 20
1682
  9
$LIMMIN
 10
0
 20
0
  9
$LIMMAX
 10
2378
 20
1682
  9
$LTSCALE
 40
1
  0
ENDSEC
  0
SECTION
  2
TABLES
  0
TABLE
  2
LTYPE
 70
     9
  0
LTYPE
  2
CONTINUOUS
 70
    64
  3
実線
 72
    65
 73
     0
 40
0.0
  0
LTYPE
  2
DASHED1
 70
    64
  3
--  --  --  --  --  --  --  --  
 72
    65
 73
     2
 40
2.5
 49
1.25
 49
-1.25
  0
LTYPE
  2
DASHED2
 70
    64
  3
----    ----    ----    ----    
 72
    65
 73
     2
 40
5.0
 49
2.5
 49
-2.5
  0
LTYPE
  2
DASHED3
 70
    64
  3
------  ------  ------  ------  
 72
    65
 73
     2
 40
5.0
 49
3.75
 49
-1.25
  0
LTYPE
  2
CENTER1
 70
    64
  3
----- - ----- - ----- - ----- - 
 72
    65
 73
     4
 40
10.0
 49
6.25
 49
-1.25
 49
1.25
 49
-1.25
  0
LTYPE
  2
CENTER2
 70
    64
  3
----------  --  ----------  --  
 72
    65
 73
     4
 40
20.0
 49
12.5
 49
-2.5
 49
2.5
 49
-2.5
  0
LTYPE
  2
PHANTOM1
 70
    64
  3
--- - - --- - - --- - - --- - - 
 72
    65
 73
     6
 40
10.0
 49
3.25
 49
-1.25
 49
1.25
 49
-1.25
 49
1.25
 49
-1.25
  0
LTYPE
  2
PHANTOM2
 70
    64
  3
--------  -  -  --------  -  -  
 72
    65
 73
     6
 40
20.0
 49
10.0
 49
-2.5
 49
1.25
 49
-2.5
 49
1.25
 49
-2.5
  0
LTYPE
  2
DOT
 70
    64
  3
-   -   -   -   -   -   -   -   
 72
    65
 73
     2
 40
2.5
 49
0.625
 49
-1.875
  0
LTYPE
  2
DUMMY
 70
    64
  3
ダミー
 72
    65
 73
     0
 40
0.0
  0
LTYPE
  2
RAND1
 70
    64
  3
ランダム線1
 72
    65
 73
     4
 40
10.0
 49
1.0
 49
-2.0
 49
3.0
 49
-4.0
  0
LTYPE
  2
RAND2
 70
    64
  3
ランダム線2
 72
    65
 73
     4
 40
14.0
 49
2.0
 49
-3.0
 49
4.0
 49
-5.0
  0
LTYPE
  2
RAND3
 70
    64
  3
ランダム線3
 72
    65
 73
     4
 40
18.0
 49
3.0
 49
-4.0
 49
5.0
 49
-6.0
  0
LTYPE
  2
RAND4
 70
    64
  3
ランダム線4
 72
    65
 73
     4
 40
22.0
 49
4.0
 49
-5.0
 49
6.0
 49
-7.0
  0
LTYPE
  2
RAND5
 70
    64
  3
ランダム線5
 72
    65
 73
     4
 40
26.0
 49
5.0
 49
-6.0
 49
7.0
 49
-8.0
  0
LTYPE
  2
LONG1
 70
    64
  3
----------  --  ----------  --  
 72
    65
 73
     4
 40
40.0
 49
32.5
 49
-2.5
 49
2.5
 49
-2.5
  0
LTYPE
  2
LONG2
 70
    64
  3
--------  -  -  --------  -  -  
 72
    65
 73
     6
 40
40.0
 49
30.0
 49
-2.5
 49
1.25
 49
-2.5
 49
1.25
 49
-2.5
  0
LTYPE
  2
LONG3
 70
    64
  3
+++++++++++++++..+++++++++++++++
 72
    65
 73
     2
 40
40.0
 49
37.5
 49
-2.5
  0
LTYPE
  2
LONG4
 70
    64
  3
+++++++++++++++..+++++++++++++++
 72
    65
 73
     2
 40
80.0
 49
75.0
 49
-5.0
  0
LTYPE
  2
LONG5
 70
    64
  3
----------  --  ----------  --  
 72
    65
 73
     4
 40
60.0
 49
37.5
 49
-7.5
 49
7.5
 49
-7.5
  0
LTYPE
  2
dashed
 70
   64
  3
-------   -------------   ------
 72
   65
 73
    2
 40
7.5
 49
6
 49
-1.5
  0
LTYPE
  2
dashed_spaced
 70
   64
  3
----        --------        ----
 72
   65
 73
    2
 40
12
 49
6
 49
-6
  0
LTYPE
  2
long_dashed_dotted
 70
   64
  3
------------- --- --------------
 72
   65
 73
    4
 40
15.25
 49
12
 49
-1.5
 49
0.25
 49
-1.5
  0
LTYPE
  2
long_dashed_double-dotted
 70
   64
  3
----------- --- --- ------------
 72
   65
 73
    6
 40
17
 49
12
 49
-1.5
 49
0.25
 49
-1.5
 49
0.25
 49
-1.5
  0
LTYPE
  2
long_dashed_triplicate-dotted
 70
   64
  3
--------- --- --- --- ----------
 72
   65
 73
    8
 40
18.75
 49
12
 49
-1.5
 49
0.25
 49
-1.5
 49
0.25
 49
-1.5
 49
0.25
 49
-1.5
  0
LTYPE
  2
dotted
 70
   64
  3
   -       -       -       -    
 72
   65
 73
    2
 40
1.75
 49
0.25
 49
-1.5
  0
LTYPE
  2
chain
 70
   64
  3
-------------- -- --------------
 72
   65
 73
    4
 40
18.5
 49
12
 49
-1.5
 49
3.5
 49
-1.5
  0
LTYPE
  2
chain_double_dash
 70
   64
  3
------------ -- -- -------------
 72
   65
 73
    6
 40
23.5
 49
12
 49
-1.5
 49
3.5
 49
-1.5
 49
3.5
 49
-1.5
  0
LTYPE
  2
dashed_dotted
 70
   64
  3
-----------     -     ----------
 72
   65
 73
    4
 40
9.25
 49
6
 49
-1.5
 49
0.25
 49
-1.5
  0
LTYPE
  2
double-dashed_dotted
 70
   64
  3
------   -----------   -   -----
 72
   65
 73
    6
 40
16.75
 49
6
 49
-1.5
 49
6
 49
-1.5
 49
0.25
 49
-1.5
  0
LTYPE
  2
dashed_double-dotted
 70
   64
  3
---------    -    -    ---------
 72
   65
 73
    6
 40
11
 49
6
 49
-1.5
 49
0.25
 49
-1.5
 49
0.25
 49
-1.5
  0
LTYPE
  2
double-dashed_double-dotted
 70
   64
  3
-----   ---------   -   -   ----
 72
   65
 73
    8
 40
18.5
 49
6
 49
-1.5
 49
6
 49
-1.5
 49
0.25
 49
-1.5
 49
0.25
 49
-1.5
  0
LTYPE
  2
dashed_triplicate-dotted
 70
   64
  3
-------    -    -    -    ------
 72
   65
 73
    8
 40
12.75
 49
6
 49
-1.5
 49
0.25
 49
-1.5
 49
0.25
 49
-1.5
 49
0.25
 49
-1.5
  0
LTYPE
  2
double-dashed_triplicate-dotted
 70
   64
  3
-----  ---------  -  -  -  -----
 72
   65
 73
   10
 40
20.25
 49
6
 49
-1.5
 49
6
 49
-1.5
 49
0.25
 49
-1.5
 49
0.25
 49
-1.5
 49
0.25
 49
-1.5
  0
LTYPE
  2
undefined
 70
   64
  3
--------------------------------
 72
   65
 73
    0
 40
0
  0
ENDTAB
  0
TABLE
  2
STYLE
  5
3
100
AcDbSymbolTable
 70
     1
  0
STYLE
  5
10
100
AcDbSymbolTableRecord
100
AcDbTextStyleTableRecord
  2
STANDARD
 70
     0
 40
0.0
 41
1.0
 50
0.0
 71
     0
 42
0.2
  3
txt
  4
bigfont.shx
  0
STYLE
  5
26
100
AcDbSymbolTableRecord
100
AcDbTextStyleTableRecord
  2
TATEGAKI
 70
    68
 40
0.0
 41
1.0
 50
0.0
 71
     0
 42
1.0
  3
txt
  4
bigfont.shx
  0
ENDTAB
  0
TABLE
  2
LAYER
 70
    2
  0
LAYER
  2
_0-0_
 70
   64
 62
    7
  6
CONTINUOUS
  0
LAYER
  2
ADD_LINE
 70
   64
 62
    7
  6
CONTINUOUS
  0
ENDTAB
  0
ENDSEC
  0
SECTION
  2
BLOCKS
  0
ENDSEC
  0
SECTION
  2
ENTITIES
  0
LINE
  8
_0-0_
  6
CONTINUOUS
 62
    2
 10
1181.7074071739462
 20
1314.2059893463941
 11
1181.7074071739462
 21
931.75890422318776
  0
LINE
  8
_0-0_
  6
CONTINUOUS
 62
    7
 10
672.13606690525205
 20
1633.3565543671132
 11
672.13606690525205
 21
167.53106997205509
  0
LINE
  8
_0-0_
  6
CONTINUOUS
 62
    7
 10
672.13606690525205
 20
167.53106997205509
 11
1706.8525777203686
 21
167.53106997205509
  0
LINE
  8
_0-0_
  6
CONTINUOUS
 62
    7
 10
1706.8525777203686
 20
1633.3565543671132
 11
1706.8525777203686
 21
167.53106997205509
  0
LINE
  8
_0-0_
  6
CONTINUOUS
 62
    7
 10
1053.7353194053103
 20
1012.5130174339722
 11
1029.8704655402635
 21
988.64816356892629
  0
LINE
  8
_0-0_
  6
CONTINUOUS
 62
    4
 10
1048.1434363132739
 20
1026.0130174339722
 11
1016.3704655402636
 21
994.24004666096175
  0
LINE
  8
_0-0_
  6
CONTINUOUS
 62
    2
 10
1204.8697089423222
 20
1315.5944082711433
 11
1205.9791493506345
 21
1316.8513591604317
  0
LINE
  8
_0-0_
  6
CONTINUOUS
 62
    2
 10
1182.6425589423216
 20
1312.8174537291072
 11
1181.7074071739462
 21
1314.2059893463941
  0
LINE
  8
_0-0_
  6
CONTINUOUS
 62
    2
 10
1183.7519993506339
 20
1311.5605028398188
 11
1182.6425589423216
 21
1312.8174537291072
  0
LINE
  8
_0-0_
  6
CONTINUOUS
 62
    2
 10
1185.0153405455458
 20
1310.4585363106946
 11
1183.7519993506339
 21
1311.5605028398188
  0
LINE
  8
_0-0_
  6
CONTINUOUS
 62
    2
 10
1186.4110833162213
 20
1309.5303583106308
 11
1185.0153405455458
 21
1310.4585363106946
  0
LINE
  8
_0-0_
  6
CONTINUOUS
 62
    2
 10
1187.9158502576465
 20
1308.7915167310568
 11
1186.4110833162213
 21
1309.5303583106308
  0
LINE
  8
_0-0_
  6
CONTINUOUS
 62
    2
 10
1189.5039301140587
 20
1308.2546588203188
 11
1187.9158502576465
 21
1308.7915167310568
  0
LINE
  8
_0-0_
  6
CONTINUOUS
 62
    2
 10
1191.1481557513707
 20
1307.9289032667059
 11
1189.5039301140587
 21
1308.2546588203188
  0
LINE
  8
_0-0_
  6
CONTINUOUS
 62
    2
 10
1192.8209821739474
 20
1307.819684608394
 11
1191.1481557513707
 21
1307.9289032667059
  0
LINE
  8
_0-0_
  6
CONTINUOUS
 62
    2
 10
1194.4938030397334
 20
1307.9289032667059
 11
1192.8209821739474
 21
1307.819684608394
  0
LINE
  8
_0-0_
  6
CONTINUOUS
 62
    2
 10
1196.1380286770454
 20
1308.2546588203188
 11
1194.4938030397334
 21
1307.9289032667059
  0
LINE
  8
_0-0_
  6
CONTINUOUS
 62
    2
 10
1197.7261085334594
 20
1308.7915167310568
 11
1196.1380286770454
 21
1308.2546588203188
  0
LINE
  8
_0-0_
  6
CONTINUOUS
 62
    2
 10
1199.2308754748829
 20
1309.5303583106308
 11
1197.7261085334594
 21
1308.7915167310568
  0
LINE
  8
_0-0_
  6
CONTINUOUS
 62
    2
 10
1200.6266182455583
 20
1310.4585363106946
 11
1199.2308754748829
 21
1309.5303583106308
  0
LINE
  8
_0-0_
  6
CONTINUOUS
 62
    2
 10
1201.8899594404702
 20
1311.5605028398188
 11
1200.6266182455583
 21
1310.4585363106946
  0
LINE
  8
_0-0_
  6
CONTINUOUS
 62
    2
 10
1202.9993998487826
 20
1312.8174537291072
 11
1201.8899594404702
 21
1311.5605028398188
  0
LINE
  8
_0-0_
  6
CONTINUOUS
 62
    2
 10
1203.934557173945
 20
1314.2059893463941
 11
1202.9993998487826
 21
1312.8174537291072
  0
LINE
  8
_0-0_
  6
CONTINUOUS
 62
    2
 10
1202.9993998487826
 20
1315.5944082711433
 11
1203.934557173945
 21
1314.2058782106435
  0
LINE
  8
_0-0_
  6
CONTINUOUS
 62
    2
 10
1201.8899594404702
 20
1316.8513591604317
 11
1202.9993998487826
 21
1315.5944082711433
  0
LINE
  8
_0-0_
  6
CONTINUOUS
 62
    2
 10
1200.6266182455583
 20
1317.9533256895559
 11
1201.8899594404702
 21
1316.8513591604317
  0
LINE
  8
_0-0_
  6
CONTINUOUS
 62
    2
 10
1199.2308754748829
 20
1318.8815036896196
 11
1200.6266182455583
 21
1317.9533256895559
  0
LINE
  8
_0-0_
  6
CONTINUOUS
 62
    2
 10
1197.7261085334594
 20
1319.6203452691936
 11
1199.2308754748829
 21
1318.8815036896196
  0
LINE
  8
_0-0_
  6
CONTINUOUS
 62
    2
 10
1196.1380286770454
 20
1320.1572031799317
 11
1197.7261085334594
 21
1319.6203452691936
  0
LINE
  8
_0-0_
  6
CONTINUOUS
 62
    2
 10
1194.4938030397334
 20
1320.4829587335428
 11
1196.1380286770454
 21
1320.1572031799317
  0
LINE
  8
_0-0_
  6
CONTINUOUS
 62
    2
 10
1192.8209821739474
 20
1320.5921829486435
 11
1194.4938030397334
 21
1320.4829587335428
  0
LINE
  8
_0-0_
  6
CONTINUOUS
 62
    2
 10
1191.1481557513707
 20
1320.4829587335428
 11
1192.8209821739474
 21
1320.5921829486435
  0
LINE
  8
_0-0_
  6
CONTINUOUS
 62
    2
 10
1189.5039301140587
 20
1320.1572031799317
 11
1191.1481557513707
 21
1320.4829587335428
  0
LINE
  8
_0-0_
  6
CONTINUOUS
 62
    2
 10
1187.9158502576465
 20
1319.6203452691936
 11
1189.5039301140587
 21
1320.1572031799317
  0
LINE
  8
_0-0_
  6
CONTINUOUS
 62
    2
 10
1186.4110833162213
 20
1318.8815036896196
 11
1187.9158502576465
 21
1319.6203452691936
  0
LINE
  8
_0-0_
  6
CONTINUOUS
 62
    2
 10
1185.0153405455458
 20
1317.9533256895559
 11
1186.4110833162213
 21
1318.8815036896196
  0
LINE
  8
_0-0_
  6
CONTINUOUS
 62
    2
 10
1183.7519993506339
 20
1316.8513591604317
 11
1185.0153405455458
 21
1317.9533256895559
  0
LINE
  8
_0-0_
  6
CONTINUOUS
 62
    2
 10
1182.6425589423216
 20
1315.5944082711433
 11
1183.7519993506339
 21
1316.8513591604317
  0
LINE
  8
_0-0_
  6
CONTINUOUS
 62
    2
 10
1181.7074071739462
 20
1314.2058782106435
 11
1182.6425589423216
 21
1315.5944082711433
  0
LINE
  8
_0-0_
  6
CONTINUOUS
 62
    2
 10
1224.1171094404708
 20
1316.8513591604317
 11
1225.2265498487832
 21
1315.5944082711433
  0
LINE
  8
_0-0_
  6
CONTINUOUS
 62
    2
 10
1222.853768245559
 20
1317.9533256895559
 11
1224.1171094404708
 21
1316.8513591604317
  0
LINE
  8
_0-0_
  6
CONTINUOUS
 62
    2
 10
1221.4580254748835
 20
1318.8815036896196
 11
1222.853768245559
 21
1317.9533256895559
  0
LINE
  8
_0-0_
  6
CONTINUOUS
 62
    2
 10
1219.9532585334582
 20
1319.6203452691936
 11
1221.4580254748835
 21
1318.8815036896196
  0
LINE
  8
_0-0_
  6
CONTINUOUS
 62
    2
 10
1218.3651786770461
 20
1320.1572031799317
 11
1219.9532585334582
 21
1319.6203452691936
  0
LINE
  8
_0-0_
  6
CONTINUOUS
 62
    2
 10
1216.720953039734
 20
1320.4829587335428
 11
1218.3651786770461
 21
1320.1572031799317
  0
LINE
  8
_0-0_
  6
CONTINUOUS
 62
    2
 10
1215.0481321739462
 20
1320.5921829486435
 11
1216.720953039734
 21
1320.4829587335428
  0
LINE
  8
_0-0_
  6
CONTINUOUS
 62
    2
 10
1213.3753057513713
 20
1320.4829587335428
 11
1215.0481321739462
 21
1320.5921829486435
  0
LINE
  8
_0-0_
  6
CONTINUOUS
 62
    2
 10
1211.7310801140593
 20
1320.1572031799317
 11
1213.3753057513713
 21
1320.4829587335428
  0
LINE
  8
_0-0_
  6
CONTINUOUS
 62
    2
 10
1210.1430002576453
 20
1319.6203452691936
 11
1211.7310801140593
 21
1320.1572031799317
  0
LINE
  8
_0-0_
  6
CONTINUOUS
 62
    2
 10
1208.6382333162219
 20
1318.8815036896196
 11
1210.1430002576453
 21
1319.6203452691936
  0
LINE
  8
_0-0_
  6
CONTINUOUS
 62
    2
 10
1207.2424905455464
 20
1317.9533256895559
 11
1208.6382333162219
 21
1318.8815036896196
  0
LINE
  8
_0-0_
  6
CONTINUOUS
 62
    2
 10
1205.9791493506345
 20
1316.8513591604317
 11
1207.2424905455464
 21
1317.9533256895559
  0
LINE
  8
_0-0_
  6
CONTINUOUS
 62
    2
 10
1203.934557173945
 20
1314.2058782106435
 11
1204.8697089423222
 21
1315.5944082711433
  0
LINE
  8
_0-0_
  6
CONTINUOUS
 62
    2
 10
1225.2265498487832
 20
1315.5944082711433
 11
1226.1615646437822
 21
1314.2060898407219
  0
LINE
  8
_0-0_
  6
CONTINUOUS
 62
    2
 10
1226.1615646437822
 20
931.75890422318776
 11
1226.1615646437822
 21
1314.2060898407219
  0
LINE
  8
_0-0_
  6
CONTINUOUS
 62
    2
 10
1135.9500478610644
 20
931.75890422318776
 11
1181.7074071739462
 21
931.75890422318776
  0
LINE
  8
_0-0_
  6
CONTINUOUS
 62
    2
 10
1135.9500478610644
 20
931.75890422318776
 11
1131.7074071739462
 21
927.51626353606866
  0
LINE
  8
_0-0_
  6
CONTINUOUS
 62
    2
 10
1131.7074071739462
 20
891.54738744047086
 11
1131.7074071739462
 21
927.51626353606866
  0
LINE
  8
_0-0_
  6
CONTINUOUS
 62
    2
 10
1131.7074071739462
 20
891.54738744047086
 11
1135.9500478610644
 21
887.30474675335176
  0
LINE
  8
_0-0_
  6
CONTINUOUS
 62
    2
 10
1271.9189239566622
 20
931.75890422318776
 11
1226.1615646437822
 21
931.75890422318776
  0
LINE
  8
_0-0_
  6
CONTINUOUS
 62
    2
 10
1271.9189239566622
 20
931.75890422318776
 11
1276.1615646437822
 21
927.51626353606866
  0
LINE
  8
_0-0_
  6
CONTINUOUS
 62
    2
 10
1276.1615646437822
 20
891.54738744047086
 11
1276.1615646437822
 21
927.51626353606866
  0
LINE
  8
_0-0_
  6
CONTINUOUS
 62
    2
 10
1271.9189239566622
 20
887.30474675335176
 11
1135.9500478610644
 21
887.30474675335176
  0
LINE
  8
_0-0_
  6
CONTINUOUS
 62
    2
 10
1276.1615646437822
 20
891.54738744047086
 11
1271.9189239566622
 21
887.30474675335176
  0
LINE
  8
_0-0_
  6
CONTINUOUS
 62
    7
 10
1354.1336524124181
 20
1012.5130174339722
 11
1377.9985062774631
 21
988.64816356892629
  0
LINE
  8
_0-0_
  6
CONTINUOUS
 62
    4
 10
1359.7255355044545
 20
1026.0130174339722
 11
1391.4985062774631
 21
994.24004666096266
  0
LINE
  8
_0-0_
  6
CONTINUOUS
 62
    7
 10
1029.8704655402635
 20
969.30235668574937
 11
1073.0811262884872
 21
1012.5130174339722
  0
LINE
  8
_0-0_
  6
CONTINUOUS
 62
    7
 10
1029.8704655402635
 20
953.39245410905392
 11
1088.9910288651827
 21
1012.5130174339722
  0
LINE
  8
_0-0_
  6
CONTINUOUS
 62
    7
 10
1029.8704655402635
 20
937.48255153235755
 11
1104.9009314418781
 21
1012.5130174339722
  0
LINE
  8
_0-0_
  6
CONTINUOUS
 62
    7
 10
1366.8801965912426
 20
1008.0710672304406
 11
1453.0264762259976
 21
1157.2808004408719
  0
POINT
  8
_0-0_
 62
    7
 10
1366.8801965912426
 20
1008.0710672304406
  0
LINE
  8
_0-0_
  6
CONTINUOUS
 62
    7
 10
1217.4321806447151
 20
372.70955003017139
 11
1467.4321806447151
 21
622.70955003017139
  0
ARC
  8
_0-0_
  6
CONTINUOUS
 62
    1
 10
1094.4024757245643
 20
562.70955003017139
 40
30
 50
180
 51
0
  0
ARC
  8
_0-0_
  6
CONTINUOUS
 62
    1
 10
1094.4024757245643
 20
562.70955003017139
 40
15
 50
180
 51
0
  0
LINE
  8
_0-0_
  6
CONTINUOUS
 62
    1
 10
1079.4024757245643
 20
572.70955003017139
 11
1064.4024757245643
 21
572.70955003017139
  0
LINE
  8
_0-0_
  6
CONTINUOUS
 62
    1
 10
1079.4024757245643
 20
562.70955003017139
 11
1079.4024757245643
 21
572.70955003017139
  0
LINE
  8
_0-0_
  6
CONTINUOUS
 62
    1
 10
1064.4024757245643
 20
562.70955003017139
 11
1064.4024757245643
 21
572.70955003017139
  0
ARC
  8
_0-0_
  6
CONTINUOUS
 62
    1
 10
1139.4024757245643
 20
682.70955003017139
 40
30
 50
0
 51
180
  0
ARC
  8
_0-0_
  6
CONTINUOUS
 62
    1
 10
1139.4024757245643
 20
682.70955003017139
 40
15
 50
0
 51
180
  0
LINE
  8
_0-0_
  6
CONTINUOUS
 62
    1
 10
1154.4024757245643
 20
672.70955003017139
 11
1169.4024757245643
 21
672.70955003017139
  0
LINE
  8
_0-0_
  6
CONTINUOUS
 62
    1
 10
1154.4024757245643
 20
682.70955003017139
 11
1154.4024757245643
 21
672.70955003017139
  0
LINE
  8
_0-0_
  6
CONTINUOUS
 62
    1
 10
1169.4024757245643
 20
682.70955003017139
 11
1169.4024757245643
 21
672.70955003017139
  0
LINE
  8
_0-0_
  6
CONTINUOUS
 62
    1
 10
1109.4024757245643
 20
562.70955003017139
 11
1109.4024757245643
 21
682.70955003017139
  0
LINE
  8
_0-0_
  6
CONTINUOUS
 62
    1
 10
1124.4024757245643
 20
682.70955003017139
 11
1124.4024757245643
 21
562.70955003017139
  0
ARC
  8
_0-0_
  6
CONTINUOUS
 62
    1
 10
1268.4664960931641
 20
562.70955003017139
 40
30
 50
180
 51
0
  0
ARC
  8
_0-0_
  6
CONTINUOUS
 62
    1
 10
1268.4664960931641
 20
562.70955003017139
 40
15
 50
180
 51
0
  0
LINE
  8
_0-0_
  6
CONTINUOUS
 62
    1
 10
1253.4664960931641
 20
572.70955003017139
 11
1238.4664960931641
 21
572.70955003017139
  0
LINE
  8
_0-0_
  6
CONTINUOUS
 62
    1
 10
1253.4664960931641
 20
562.70955003017139
 11
1253.4664960931641
 21
572.70955003017139
  0
LINE
  8
_0-0_
  6
CONTINUOUS
 62
    1
 10
1238.4664960931641
 20
562.70955003017139
 11
1238.4664960931641
 21
572.70955003017139
  0
ARC
  8
_0-0_
  6
CONTINUOUS
 62
    1
 10
1313.4664960931641
 20
682.70955003017139
 40
30
 50
0
 51
180
  0
ARC
  8
_0-0_
  6
CONTINUOUS
 62
    1
 10
1313.4664960931641
 20
682.70955003017139
 40
15
 50
0
 51
180
  0
LINE
  8
_0-0_
  6
CONTINUOUS
 62
    1
 10
1328.4664960931659
 20
672.70955003017139
 11
1343.4664960931659
 21
672.70955003017139
  0
LINE
  8
_0-0_
  6
CONTINUOUS
 62
    1
 10
1328.4664960931659
 20
682.70955003017139
 11
1328.4664960931659
 21
672.70955003017139
  0
LINE
  8
_0-0_
  6
CONTINUOUS
 62
    1
 10
1343.4664960931659
 20
682.70955003017139
 11
1343.4664960931659
 21
672.70955003017139
  0
LINE
  8
_0-0_
  6
CONTINUOUS
 62
    1
 10
1283.4664960931641
 20
562.70955003017139
 11
1283.4664960931641
 21
682.70955003017139
  0
LINE
  8
_0-0_
  6
CONTINUOUS
 62
    1
 10
1298.4664960931641
 20
682.70955003017139
 11
1298.4664960931641
 21
562.70955003017139
  0
LINE
  8
_0-0_
  6
CONTINUOUS
 62
    7
 10
1224.2143464923938
 20
622.70955003017139
 11
1377.9985062774631
 21
776.49370981524157
  0
LINE
  8
_0-0_
  6
CONTINUOUS
 62
    7
 10
1208.3044439156947
 20
622.70955003017139
 11
1377.9985062774631
 21
792.40361239193885
  0
LINE
  8
_0-0_
  6
CONTINUOUS
 62
    7
 10
1377.9985062774631
 20
988.64816356892629
 11
1377.9985062774631
 21
622.70955003017139
  0
LINE
  8
_0-0_
  6
CONTINUOUS
 62
    7
 10
1029.8704655402635
 20
988.64816356892629
 11
1029.8704655402635
 21
622.70955003017139
  0
LINE
  8
_0-0_
  6
CONTINUOUS
 62
    7
 10
1192.3945413389993
 20
622.70955003017139
 11
1377.9985062774631
 21
808.31351496863613
  0
TEXT
  8
_0-0_
 62
    7
 10
1457.8044909321616
 20
1142.5051465933941
 40
30
 41
1
 50
0
  1
防水層
  0
LINE
  8
_0-0_
  6
CONTINUOUS
 62
    7
 10
1683.7987526051547
 20
622.70955003017139
 11
699.51184760648187
 21
622.70955003017139
  0
LINE
  8
_0-0_
  6
CONTINUOUS
 62
    5
 10
1436.4985062774631
 20
827.4595500301732
 11
1436.4985062774631
 21
647.4595500301732
  0
LINE
  8
_0-0_
  6
CONTINUOUS
 62
    5
 10
1391.4985062774631
 20
827.4595500301732
 11
1436.4985062774631
 21
827.4595500301732
  0
LINE
  8
_0-0_
  6
CONTINUOUS
 62
    5
 10
1391.4985062774631
 20
659.60566492988096
 11
1403.6446211771727
 21
647.4595500301732
  0
LINE
  8
_0-0_
  6
CONTINUOUS
 62
    5
 10
1391.4985062774631
 20
672.33358699123642
 11
1416.372543238529
 21
647.45955003017139
  0
LINE
  8
_0-0_
  6
CONTINUOUS
 62
    5
 10
1391.4985062774631
 20
685.0615090525946
 11
1429.1004652998836
 21
647.4595500301732
  0
LINE
  8
_0-0_
  6
CONTINUOUS
 62
    5
 10
1391.4985062774631
 20
697.78943111395461
 11
1436.4985062774631
 21
652.78943111395461
  0
LINE
  8
_0-0_
  6
CONTINUOUS
 62
    5
 10
1391.4985062774631
 20
710.51735317531279
 11
1436.4985062774631
 21
665.51735317531279
  0
LINE
  8
_0-0_
  6
CONTINUOUS
 62
    5
 10
1391.4985062774631
 20
723.24527523666916
 11
1436.4985062774631
 21
678.24527523667098
  0
LINE
  8
_0-0_
  6
CONTINUOUS
 62
    5
 10
1391.4985062774631
 20
735.97319729802916
 11
1436.4985062774631
 21
690.97319729802916
  0
LINE
  8
_0-0_
  6
CONTINUOUS
 62
    5
 10
1391.4985062774631
 20
748.70111935938644
 11
1436.4985062774631
 21
703.70111935938644
  0
LINE
  8
_0-0_
  6
CONTINUOUS
 62
    5
 10
1391.4985062774631
 20
761.42904142074008
 11
1436.4985062774631
 21
716.42904142073826
  0
LINE
  8
_0-0_
  6
CONTINUOUS
 62
    5
 10
1391.4985062774631
 20
774.15696348209644
 11
1436.4985062774631
 21
729.15696348209826
  0
LINE
  8
_0-0_
  6
CONTINUOUS
 62
    5
 10
1391.4985062774631
 20
786.88488554345827
 11
1436.4985062774631
 21
741.88488554345645
  0
LINE
  8
_0-0_
  6
CONTINUOUS
 62
    5
 10
1391.4985062774631
 20
799.61280760481827
 11
1436.4985062774631
 21
754.61280760481827
  0
LINE
  8
_0-0_
  6
CONTINUOUS
 62
    5
 10
1391.4985062774631
 20
812.34072966617646
 11
1436.4985062774631
 21
767.34072966617646
  0
LINE
  8
_0-0_
  6
CONTINUOUS
 62
    5
 10
1391.4985062774631
 20
825.06865172753464
 11
1436.4985062774631
 21
780.06865172753464
  0
LINE
  8
_0-0_
  6
CONTINUOUS
 62
    5
 10
1401.83553003618
 20
827.45955003017139
 11
1436.4985062774631
 21
792.79657378888828
  0
LINE
  8
_0-0_
  6
CONTINUOUS
 62
    5
 10
1414.56345209754
 20
827.4595500301732
 11
1436.4985062774631
 21
805.5244958502501
  0
LINE
  8
_0-0_
  6
CONTINUOUS
 62
    5
 10
1427.2913741589
 20
827.45955003017139
 11
1436.4985062774631
 21
818.25241791160374
  0
LINE
  8
_0-0_
  6
CONTINUOUS
 62
    5
 10
971.37046554026358
 20
827.4595500301732
 11
971.37046554026358
 21
647.4595500301732
  0
LINE
  8
_0-0_
  6
CONTINUOUS
 62
    5
 10
1016.3704655402636
 20
827.4595500301732
 11
971.37046554026358
 21
827.4595500301732
  0
LINE
  8
_0-0_
  6
CONTINUOUS
 62
    5
 10
1016.3704655402636
 20
659.60566492988096
 11
1004.224350640554
 21
647.4595500301732
  0
LINE
  8
_0-0_
  6
CONTINUOUS
 62
    5
 10
1016.3704655402636
 20
672.33358699123642
 11
991.49642857919764
 21
647.45955003017139
  0
LINE
  8
_0-0_
  6
CONTINUOUS
 62
    5
 10
1016.3704655402636
 20
685.0615090525946
 11
978.76850651784309
 21
647.4595500301732
  0
LINE
  8
_0-0_
  6
CONTINUOUS
 62
    5
 10
1016.3704655402636
 20
697.78943111395461
 11
971.37046554026358
 21
652.78943111395461
  0
LINE
  8
_0-0_
  6
CONTINUOUS
 62
    5
 10
1016.3704655402636
 20
710.51735317531279
 11
971.37046554026358
 21
665.51735317531279
  0
LINE
  8
_0-0_
  6
CONTINUOUS
 62
    5
 10
1016.3704655402636
 20
723.24527523666916
 11
971.37046554026358
 21
678.24527523667098
  0
LINE
  8
_0-0_
  6
CONTINUOUS
 62
    5
 10
1016.3704655402636
 20
735.97319729802916
 11
971.37046554026358
 21
690.97319729802916
  0
LINE
  8
_0-0_
  6
CONTINUOUS
 62
    5
 10
1016.3704655402636
 20
748.70111935938644
 11
971.37046554026358
 21
703.70111935938644
  0
LINE
  8
_0-0_
  6
CONTINUOUS
 62
    5
 10
1016.3704655402636
 20
761.42904142074008
 11
971.37046554026358
 21
716.42904142073826
  0
LINE
  8
_0-0_
  6
CONTINUOUS
 62
    5
 10
1016.3704655402636
 20
774.15696348209644
 11
971.37046554026358
 21
729.15696348209826
  0
LINE
  8
_0-0_
  6
CONTINUOUS
 62
    5
 10
1016.3704655402636
 20
786.88488554345827
 11
971.37046554026358
 21
741.88488554345645
  0
LINE
  8
_0-0_
  6
CONTINUOUS
 62
    5
 10
1016.3704655402636
 20
799.61280760481827
 11
971.37046554026358
 21
754.61280760481827
  0
LINE
  8
_0-0_
  6
CONTINUOUS
 62
    5
 10
1016.3704655402636
 20
812.34072966617646
 11
971.37046554026358
 21
767.34072966617646
  0
LINE
  8
_0-0_
  6
CONTINUOUS
 62
    5
 10
1016.3704655402636
 20
825.06865172753464
 11
971.37046554026358
 21
780.06865172753464
  0
LINE
  8
_0-0_
  6
CONTINUOUS
 62
    5
 10
1006.0334417815467
 20
827.45955003017139
 11
971.37046554026358
 21
792.79657378888828
  0
LINE
  8
_0-0_
  6
CONTINUOUS
 62
    5
 10
993.30551972018668
 20
827.4595500301732
 11
971.37046554026358
 21
805.5244958502501
  0
LINE
  8
_0-0_
  6
CONTINUOUS
 62
    5
 10
980.57759765882668
 20
827.45955003017139
 11
971.37046554026358
 21
818.25241791160374
  0
LINE
  8
_0-0_
  6
CONTINUOUS
 62
    5
 10
1016.3704655402636
 20
645.20955003017139
 11
699.51184760648187
 21
645.20955003017139
  0
LINE
  8
_0-0_
  6
CONTINUOUS
 62
    7
 10
1016.3704655402636
 20
647.45955003017139
 11
699.51184760648187
 21
647.45955003017139
  0
LINE
  8
_0-0_
  6
CONTINUOUS
 62
    7
 10
699.51184760648187
 20
827.4595500301732
 11
1016.3704655402636
 21
827.4595500301732
  0
LINE
  8
_0-0_
  6
CONTINUOUS
 62
    7
 10
1683.7987526051547
 20
827.4595500301732
 11
1391.4985062774631
 21
827.4595500301732
  0
LINE
  8
_0-0_
  6
CONTINUOUS
 62
    5
 10
1391.4985062774631
 20
645.20955003017139
 11
1683.7987526051547
 21
645.20955003017139
  0
LINE
  8
_0-0_
  6
CONTINUOUS
 62
    7
 10
1391.4985062774631
 20
647.45955003017139
 11
1683.7987526051547
 21
647.45955003017139
  0
LINE
  8
_0-0_
  6
CONTINUOUS
 62
    4
 10
1016.3704655402636
 20
994.24004666096175
 11
1016.3704655402636
 21
642.95955003017139
  0
LINE
  8
_0-0_
  6
CONTINUOUS
 62
    4
 10
1016.3704655402636
 20
642.95955003017139
 11
699.51184760648187
 21
642.95955003017139
  0
LINE
  8
_0-0_
  6
CONTINUOUS
 62
    4
 10
1391.4985062774631
 20
994.24004666096266
 11
1391.4985062774631
 21
642.95955003017139
  0
LINE
  8
_0-0_
  6
CONTINUOUS
 62
    4
 10
1683.7987526051547
 20
642.95955003017139
 11
1391.4985062774631
 21
642.95955003017139
  0
LINE
  8
_0-0_
  6
CONTINUOUS
 62
    7
 10
1522.5046551967916
 20
827.4595500301732
 11
1683.7987526051547
 21
666.16545262181921
  0
LINE
  8
_0-0_
  6
CONTINUOUS
 62
    7
 10
1538.4145577734889
 20
827.4595500301732
 11
1683.7987526051547
 21
682.07535519851376
  0
LINE
  8
_0-0_
  6
CONTINUOUS
 62
    7
 10
1554.3244603501862
 20
827.4595500301732
 11
1683.7987526051547
 21
697.98525777521013
  0
LINE
  8
_0-0_
  6
CONTINUOUS
 62
    7
 10
749.19402229009768
 20
827.4595500301732
 11
929.1940222900995
 21
647.45955003017139
  0
LINE
  8
_0-0_
  6
CONTINUOUS
 62
    7
 10
765.10392486679677
 20
827.4595500301732
 11
945.10392486679859
 21
647.45955003017139
  0
LINE
  8
_0-0_
  6
CONTINUOUS
 62
    7
 10
733.2841197134004
 20
827.4595500301732
 11
913.28411971340222
 21
647.45955003017139
  0
LINE
  8
_0-0_
  6
CONTINUOUS
 62
    7
 10
993.06446433787653
 20
772.46509018044458
 11
906.40143605591595
 21
922.56985830257986
  0
POINT
  8
_0-0_
 62
    7
 10
993.06446433787653
 20
772.46509018044458
  0
TEXT
  8
_0-0_
 62
    7
 10
756.26821949053931
 20
907.00841111643172
 40
30
 41
1
 50
0
  1
成型緩衝材
  0
LINE
  8
_0-0_
  6
CONTINUOUS
 62
    7
 10
1473.6748794291634
 20
792.42228030242791
 11
1523.4414227251164
 21
878.62046180809307
  0
POINT
  8
_0-0_
 62
    7
 10
1473.6748794291634
 20
792.42228030242791
  0
TEXT
  8
_0-0_
 62
    7
 10
1507.421968061346
 20
886.28688501608508
 40
30
 41
1
 50
0
  1
保護ｺﾝｸﾘｰﾄ
  0
POINT
  8
_0-0_
 62
    7
 10
699.51184760648187
 20
622.70955003017139
  0
LINE
  8
_0-0_
  6
CONTINUOUS
 62
    7
 10
708.31529819039508
 20
372.70955003017139
 11
958.31529819040236
 21
622.70955003017139
  0
POINT
  8
_0-0_
 62
    7
 10
708.31529819039508
 20
372.70955003017139
  0
LINE
  8
_0-0_
  6
CONTINUOUS
 62
    7
 10
1233.3420832214142
 20
372.7095500301723
 11
1483.3420832214106
 21
622.70955003017139
  0
LINE
  8
_0-0_
  6
CONTINUOUS
 62
    7
 10
1249.2519857981115
 20
372.70955003017139
 11
1499.2519857981097
 21
622.70955003017139
  0
LINE
  8
_0-0_
  6
CONTINUOUS
 62
    7
 10
724.22520076709236
 20
372.70955003017139
 11
974.22520076709782
 21
622.70955003017139
  0
LINE
  8
_0-0_
  6
CONTINUOUS
 62
    7
 10
740.13510334378782
 20
372.70955003017139
 11
990.13510334379509
 21
622.70955003017139
  0
LINE
  8
_0-0_
  6
CONTINUOUS
 62
    7
 10
1181.7074071739466
 20
1012.5130174339722
 11
1226.1615646437826
 21
1012.5130174339722
  0
LINE
  8
_0-0_
  6
CONTINUOUS
 62
    7
 10
1161.7074071739466
 20
992.51301743397221
 11
1181.7074071739466
 21
992.51301743397221
  0
LINE
  8
_0-0_
  6
CONTINUOUS
 62
    7
 10
1226.1615646437826
 20
992.51301743397221
 11
1246.1615646437826
 21
992.51301743397221
  0
LINE
  8
_0-0_
  6
CONTINUOUS
 62
    7
 10
1246.1615646437826
 20
992.51301743397221
 11
1246.1615646437826
 21
1012.5130174339722
  0
LINE
  8
_0-0_
  6
CONTINUOUS
 62
    7
 10
1161.7074071739466
 20
1012.5130174339722
 11
1161.7074071739466
 21
992.51301743397221
  0
LINE
  8
_0-0_
  6
CONTINUOUS
 62
    2
 10
1181.7074071739466
 20
1008.2843811051193
 11
1165.9360435027995
 21
992.51301743397221
  0
LINE
  8
_0-0_
  6
CONTINUOUS
 62
    2
 10
1181.7074071739466
 20
1003.8296083836441
 11
1170.3908162242747
 21
992.51301743397221
  0
LINE
  8
_0-0_
  6
CONTINUOUS
 62
    2
 10
1181.7074071739466
 20
999.37483566216883
 11
1174.84558894575
 21
992.51301743397221
  0
LINE
  8
_0-0_
  6
CONTINUOUS
 62
    2
 10
1181.7074071739466
 20
994.92006294069358
 11
1179.3003616672252
 21
992.51301743397221
  0
LINE
  8
_0-0_
  6
CONTINUOUS
 62
    2
 10
1246.1615646437826
 20
993.95980259568273
 11
1244.7147794820721
 21
992.51301743397221
  0
LINE
  8
_0-0_
  6
CONTINUOUS
 62
    2
 10
1246.1615646437826
 20
998.41457531715798
 11
1240.2600067605968
 21
992.51301743397221
  0
LINE
  8
_0-0_
  6
CONTINUOUS
 62
    2
 10
1246.1615646437826
 20
1002.8693480386332
 11
1235.8052340391216
 21
992.51301743397221
  0
LINE
  8
_0-0_
  6
CONTINUOUS
 62
    2
 10
1246.1615646437826
 20
1007.3241207601085
 11
1231.3504613176462
 21
992.51301743397221
  0
LINE
  8
_0-0_
  6
CONTINUOUS
 62
    2
 10
1246.1615646437826
 20
1011.7788934815837
 11
1226.8956885961711
 21
992.51301743397221
  0
ARC
  8
_0-0_
  6
CONTINUOUS
 62
    4
 10
1180.2074071739466
 20
1050.5130174339722
 40
12
 50
90
 51
180
  0
ARC
  8
_0-0_
  6
CONTINUOUS
 62
    4
 10
1227.6615646437826
 20
1050.5130174339722
 40
12
 50
0
 51
90
  0
LINE
  8
_0-0_
  6
CONTINUOUS
 62
    4
 10
1227.6615646437826
 20
1062.5130174339722
 11
1226.1615646437826
 21
1062.5130174339722
  0
LINE
  8
_0-0_
  6
CONTINUOUS
 62
    4
 10
1181.7074071739466
 20
1062.5130174339722
 11
1180.2074071739466
 21
1062.5130174339722
  0
LINE
  8
_0-0_
  6
CONTINUOUS
 62
    2
 10
1161.7074071739466
 20
1012.5130174339723
 11
1161.7074071739466
 21
1012.5130174339723
  0
LINE
  8
_0-0_
  6
CONTINUOUS
 62
    2
 10
1161.7074071739466
 20
1012.5130174339723
 11
1168.6884265458793
 21
1011.7157081830386
  0
LINE
  8
_0-0_
  6
CONTINUOUS
 62
    2
 10
1168.6884265458793
 20
1011.7157081830386
 11
1175.7611761165178
 21
1011.7790807557063
  0
LINE
  8
_0-0_
  6
CONTINUOUS
 62
    2
 10
1175.7611761165178
 20
1011.7790807557063
 11
1181.7074071739466
 21
1012.5130174339723
  0
LINE
  8
_0-0_
  6
CONTINUOUS
 62
    2
 10
1163.3893353160781
 20
1012.240172854628
 11
1161.7074071739466
 21
1010.5582447124964
  0
LINE
  8
_0-0_
  6
CONTINUOUS
 62
    2
 10
1167.4013077957918
 20
1011.7973726128662
 11
1161.7074071739466
 21
1006.103471991021
  0
LINE
  8
_0-0_
  6
CONTINUOUS
 62
    2
 10
1171.6956958247818
 20
1011.6369879203809
 11
1161.7074071739466
 21
1001.6486992695457
  0
LINE
  8
_0-0_
  6
CONTINUOUS
 62
    2
 10
1176.3358455523551
 20
1011.8223649264783
 11
1161.7074071739466
 21
997.19392654806984
  0
LINE
  8
_0-0_
  6
CONTINUOUS
 62
    2
 10
1181.4331694983325
 20
1012.4649161509806
 11
1161.7074071739466
 21
992.73915382659459
  0
LINE
  8
_0-0_
  6
CONTINUOUS
 62
    2
 10
1228.6866541690401
 20
1012.1230738927436
 11
1226.1615646437826
 21
1009.5979843674861
  0
LINE
  8
_0-0_
  6
CONTINUOUS
 62
    2
 10
1232.7555757069238
 20
1011.7372227091514
 11
1226.1615646437826
 21
1005.1432116460103
  0
LINE
  8
_0-0_
  6
CONTINUOUS
 62
    2
 10
1237.1180036942567
 20
1011.6448779750085
 11
1226.1615646437826
 21
1000.6884389245345
  0
LINE
  8
_0-0_
  6
CONTINUOUS
 62
    2
 10
1241.8448580391193
 20
1011.9169595983963
 11
1226.1615646437826
 21
996.23366620305956
  0
LINE
  8
_0-0_
  6
CONTINUOUS
 62
    2
 10
1226.1615646437826
 20
1012.5130174339723
 11
1226.1615646437826
 21
1012.5130174339723
  0
LINE
  8
_0-0_
  6
CONTINUOUS
 62
    2
 10
1226.1615646437826
 20
1012.5130174339723
 11
1233.1425840157153
 21
1011.7157081830386
  0
LINE
  8
_0-0_
  6
CONTINUOUS
 62
    2
 10
1233.1425840157153
 20
1011.7157081830386
 11
1240.2153335863538
 21
1011.7790807557063
  0
LINE
  8
_0-0_
  6
CONTINUOUS
 62
    2
 10
1240.2153335863538
 20
1011.7790807557063
 11
1246.1615646437826
 21
1012.5130174339723
  0
POINT
  8
_0-0_
 62
    7
 10
1170.8182090066327
 20
1004.1414505328218
  0
LINE
  8
_0-0_
  6
CONTINUOUS
 62
    7
 10
1053.7353194053103
 20
1012.5130174339722
 11
1161.7074071739466
 21
1012.5130174339722
  0
LINE
  8
_0-0_
  6
CONTINUOUS
 62
    7
 10
1246.1615646437826
 20
1012.5130174339722
 11
1354.1336524124181
 21
1012.5130174339722
  0
LINE
  8
_0-0_
  6
CONTINUOUS
 62
    4
 10
1168.2074071739466
 20
1050.5130174339722
 11
1168.2074071739466
 21
1026.0130174339722
  0
LINE
  8
_0-0_
  6
CONTINUOUS
 62
    4
 10
1048.1434363132739
 20
1026.0130174339722
 11
1168.2074071739466
 21
1026.0130174339722
  0
LINE
  8
_0-0_
  6
CONTINUOUS
 62
    4
 10
1239.6615646437826
 20
1050.5130174339722
 11
1239.6615646437826
 21
1026.0130174339722
  0
LINE
  8
_0-0_
  6
CONTINUOUS
 62
    4
 10
1239.6615646437826
 20
1026.0130174339722
 11
1359.7255355044545
 21
1026.0130174339722
  0
LINE
  8
_0-0_
  6
CONTINUOUS
 62
    7
 10
1170.8182090066327
 20
1004.1414505328218
 11
1093.8317365809116
 21
1137.4859322696711
  0
TEXT
  8
_0-0_
 62
    7
 10
1003.5160554913082
 20
1119.3352374517412
 40
30
 41
1
 50
0
  1
ｼｰﾘﾝｸﾞ
  0
LINE
  8
_0-0_
  6
CONTINUOUS
 62
    7
 10
672.13606690525205
 20
1633.3565543671132
 11
1706.8525777203686
 21
1633.3565543671132
  0
LINE
  8
_0-0_
  6
CONTINUOUS
 62
    7
 10
672.13606690525205
 20
1553.3565543671132
 11
1706.8525777203686
 21
1553.3565543671132
  0
LINE
  8
_0-0_
  6
CONTINUOUS
 62
    7
 10
672.13606690525205
 20
1473.3565543671132
 11
1706.8525777203686
 21
1473.3565543671132
  0
LINE
  8
_0-0_
  6
CONTINUOUS
 62
    7
 10
1189.4943223128103
 20
1633.3565543671132
 11
1189.4943223128103
 21
1473.3565543671132
  0
TEXT
  8
_0-0_
 62
    7
 10
1213.4943223128103
 20
1577.3565543671132
 40
20
 41
1
 50
0
  1
構造：ＲＣ造
  0
TEXT
  8
_0-0_
 62
    7
 10
1213.4943223128103
 20
1497.3565543671132
 40
20
 41
1
 50
0
  1
下地：コンクリートスラブ
  0
TEXT
  8
_0-0_
 62
    7
 10
696.13606690525216
 20
1577.3565543671132
 40
20
 41
1
 50
0
  1
図面番号：UPM-10C-kiso-03
  0
TEXT
  8
_0-0_
 62
    7
 10
696.13606690525205
 20
1497.3565543671132
 40
20
 41
1
 50
0
  1
施工部位：基礎・架台(フェンス)
  0
ENDSEC
  0
EOF
