  0
SECTION
  2
HEADER
  9
$ACADVER
  1
AC1009
  9
$INSBASE
 10
0
 20
0
 30
0
  9
$EXTMIN
 10
0
 20
0
  9
$EXTMAX
 10
2378
 20
1682
  9
$LIMMIN
 10
0
 20
0
  9
$LIMMAX
 10
2378
 20
1682
  9
$LTSCALE
 40
1
  0
ENDSEC
  0
SECTION
  2
TABLES
  0
TABLE
  2
LTYPE
 70
     9
  0
LTYPE
  2
CONTINUOUS
 70
    64
  3
実線
 72
    65
 73
     0
 40
0.0
  0
LTYPE
  2
DASHED1
 70
    64
  3
--  --  --  --  --  --  --  --  
 72
    65
 73
     2
 40
2.5
 49
1.25
 49
-1.25
  0
LTYPE
  2
DASHED2
 70
    64
  3
----    ----    ----    ----    
 72
    65
 73
     2
 40
5.0
 49
2.5
 49
-2.5
  0
LTYPE
  2
DASHED3
 70
    64
  3
------  ------  ------  ------  
 72
    65
 73
     2
 40
5.0
 49
3.75
 49
-1.25
  0
LTYPE
  2
CENTER1
 70
    64
  3
----- - ----- - ----- - ----- - 
 72
    65
 73
     4
 40
10.0
 49
6.25
 49
-1.25
 49
1.25
 49
-1.25
  0
LTYPE
  2
CENTER2
 70
    64
  3
----------  --  ----------  --  
 72
    65
 73
     4
 40
20.0
 49
12.5
 49
-2.5
 49
2.5
 49
-2.5
  0
LTYPE
  2
PHANTOM1
 70
    64
  3
--- - - --- - - --- - - --- - - 
 72
    65
 73
     6
 40
10.0
 49
3.25
 49
-1.25
 49
1.25
 49
-1.25
 49
1.25
 49
-1.25
  0
LTYPE
  2
PHANTOM2
 70
    64
  3
--------  -  -  --------  -  -  
 72
    65
 73
     6
 40
20.0
 49
10.0
 49
-2.5
 49
1.25
 49
-2.5
 49
1.25
 49
-2.5
  0
LTYPE
  2
DOT
 70
    64
  3
-   -   -   -   -   -   -   -   
 72
    65
 73
     2
 40
2.5
 49
0.625
 49
-1.875
  0
LTYPE
  2
DUMMY
 70
    64
  3
ダミー
 72
    65
 73
     0
 40
0.0
  0
LTYPE
  2
RAND1
 70
    64
  3
ランダム線1
 72
    65
 73
     4
 40
10.0
 49
1.0
 49
-2.0
 49
3.0
 49
-4.0
  0
LTYPE
  2
RAND2
 70
    64
  3
ランダム線2
 72
    65
 73
     4
 40
14.0
 49
2.0
 49
-3.0
 49
4.0
 49
-5.0
  0
LTYPE
  2
RAND3
 70
    64
  3
ランダム線3
 72
    65
 73
     4
 40
18.0
 49
3.0
 49
-4.0
 49
5.0
 49
-6.0
  0
LTYPE
  2
RAND4
 70
    64
  3
ランダム線4
 72
    65
 73
     4
 40
22.0
 49
4.0
 49
-5.0
 49
6.0
 49
-7.0
  0
LTYPE
  2
RAND5
 70
    64
  3
ランダム線5
 72
    65
 73
     4
 40
26.0
 49
5.0
 49
-6.0
 49
7.0
 49
-8.0
  0
LTYPE
  2
LONG1
 70
    64
  3
----------  --  ----------  --  
 72
    65
 73
     4
 40
40.0
 49
32.5
 49
-2.5
 49
2.5
 49
-2.5
  0
LTYPE
  2
LONG2
 70
    64
  3
--------  -  -  --------  -  -  
 72
    65
 73
     6
 40
40.0
 49
30.0
 49
-2.5
 49
1.25
 49
-2.5
 49
1.25
 49
-2.5
  0
LTYPE
  2
LONG3
 70
    64
  3
+++++++++++++++..+++++++++++++++
 72
    65
 73
     2
 40
40.0
 49
37.5
 49
-2.5
  0
LTYPE
  2
LONG4
 70
    64
  3
+++++++++++++++..+++++++++++++++
 72
    65
 73
     2
 40
80.0
 49
75.0
 49
-5.0
  0
LTYPE
  2
LONG5
 70
    64
  3
----------  --  ----------  --  
 72
    65
 73
     4
 40
60.0
 49
37.5
 49
-7.5
 49
7.5
 49
-7.5
  0
LTYPE
  2
dashed
 70
   64
  3
-------   -------------   ------
 72
   65
 73
    2
 40
7.5
 49
6
 49
-1.5
  0
LTYPE
  2
dashed_spaced
 70
   64
  3
----        --------        ----
 72
   65
 73
    2
 40
12
 49
6
 49
-6
  0
LTYPE
  2
long_dashed_dotted
 70
   64
  3
------------- --- --------------
 72
   65
 73
    4
 40
15.25
 49
12
 49
-1.5
 49
0.25
 49
-1.5
  0
LTYPE
  2
long_dashed_double-dotted
 70
   64
  3
----------- --- --- ------------
 72
   65
 73
    6
 40
17
 49
12
 49
-1.5
 49
0.25
 49
-1.5
 49
0.25
 49
-1.5
  0
LTYPE
  2
long_dashed_triplicate-dotted
 70
   64
  3
--------- --- --- --- ----------
 72
   65
 73
    8
 40
18.75
 49
12
 49
-1.5
 49
0.25
 49
-1.5
 49
0.25
 49
-1.5
 49
0.25
 49
-1.5
  0
LTYPE
  2
dotted
 70
   64
  3
   -       -       -       -    
 72
   65
 73
    2
 40
1.75
 49
0.25
 49
-1.5
  0
LTYPE
  2
chain
 70
   64
  3
-------------- -- --------------
 72
   65
 73
    4
 40
18.5
 49
12
 49
-1.5
 49
3.5
 49
-1.5
  0
LTYPE
  2
chain_double_dash
 70
   64
  3
------------ -- -- -------------
 72
   65
 73
    6
 40
23.5
 49
12
 49
-1.5
 49
3.5
 49
-1.5
 49
3.5
 49
-1.5
  0
LTYPE
  2
dashed_dotted
 70
   64
  3
-----------     -     ----------
 72
   65
 73
    4
 40
9.25
 49
6
 49
-1.5
 49
0.25
 49
-1.5
  0
LTYPE
  2
double-dashed_dotted
 70
   64
  3
------   -----------   -   -----
 72
   65
 73
    6
 40
16.75
 49
6
 49
-1.5
 49
6
 49
-1.5
 49
0.25
 49
-1.5
  0
LTYPE
  2
dashed_double-dotted
 70
   64
  3
---------    -    -    ---------
 72
   65
 73
    6
 40
11
 49
6
 49
-1.5
 49
0.25
 49
-1.5
 49
0.25
 49
-1.5
  0
LTYPE
  2
double-dashed_double-dotted
 70
   64
  3
-----   ---------   -   -   ----
 72
   65
 73
    8
 40
18.5
 49
6
 49
-1.5
 49
6
 49
-1.5
 49
0.25
 49
-1.5
 49
0.25
 49
-1.5
  0
LTYPE
  2
dashed_triplicate-dotted
 70
   64
  3
-------    -    -    -    ------
 72
   65
 73
    8
 40
12.75
 49
6
 49
-1.5
 49
0.25
 49
-1.5
 49
0.25
 49
-1.5
 49
0.25
 49
-1.5
  0
LTYPE
  2
double-dashed_triplicate-dotted
 70
   64
  3
-----  ---------  -  -  -  -----
 72
   65
 73
   10
 40
20.25
 49
6
 49
-1.5
 49
6
 49
-1.5
 49
0.25
 49
-1.5
 49
0.25
 49
-1.5
 49
0.25
 49
-1.5
  0
LTYPE
  2
undefined
 70
   64
  3
--------------------------------
 72
   65
 73
    0
 40
0
  0
ENDTAB
  0
TABLE
  2
STYLE
  5
3
100
AcDbSymbolTable
 70
     1
  0
STYLE
  5
10
100
AcDbSymbolTableRecord
100
AcDbTextStyleTableRecord
  2
STANDARD
 70
     0
 40
0.0
 41
1.0
 50
0.0
 71
     0
 42
0.2
  3
txt
  4
bigfont.shx
  0
STYLE
  5
26
100
AcDbSymbolTableRecord
100
AcDbTextStyleTableRecord
  2
TATEGAKI
 70
    68
 40
0.0
 41
1.0
 50
0.0
 71
     0
 42
1.0
  3
txt
  4
bigfont.shx
  0
ENDTAB
  0
TABLE
  2
LAYER
 70
    2
  0
LAYER
  2
_0-0_
 70
   64
 62
    7
  6
CONTINUOUS
  0
LAYER
  2
ADD_LINE
 70
   64
 62
    7
  6
CONTINUOUS
  0
ENDTAB
  0
ENDSEC
  0
SECTION
  2
BLOCKS
  0
ENDSEC
  0
SECTION
  2
ENTITIES
  0
LINE
  8
_0-0_
  6
CONTINUOUS
 62
    7
 10
672.13606690525205
 20
1633.3565543671129
 11
672.13606690525205
 21
167.53106997205509
  0
LINE
  8
_0-0_
  6
CONTINUOUS
 62
    7
 10
1246.7101308514902
 20
1158.4308759007226
 11
1246.7101308514902
 21
1407.9188809007237
  0
LINE
  8
_0-0_
  6
CONTINUOUS
 62
    7
 10
1234.7577348514897
 20
1158.4308759007226
 11
1219.7577478514904
 21
1158.4308759007226
  0
LINE
  8
_0-0_
  6
CONTINUOUS
 62
    7
 10
1227.7577248514899
 20
1202.8308589007238
 11
1227.7577248514899
 21
1188.8308989007228
  0
LINE
  8
_0-0_
  6
CONTINUOUS
 62
    7
 10
1199.75780585149
 20
1188.8308989007228
 11
1199.75780585149
 21
1202.8308589007238
  0
LINE
  8
_0-0_
  6
CONTINUOUS
 62
    7
 10
1218.7527088514908
 20
1162.8897409007232
 11
1218.2577678514899
 21
1159.9308559007231
  0
LINE
  8
_0-0_
  6
CONTINUOUS
 62
    7
 10
1224.8271708514894
 20
1158.4308759007226
 11
1224.7577638514904
 21
1158.3614689007236
  0
LINE
  8
_0-0_
  6
CONTINUOUS
 62
    2
 10
1290.8584366317318
 20
1117.4315592129451
 11
1292.2578008514902
 21
1118.8309234327035
  0
LINE
  8
_0-0_
  6
CONTINUOUS
 62
    2
 10
1288.6827866533313
 20
1118.0843363592894
 11
1292.2578008514884
 21
1121.6593505574465
  0
LINE
  8
_0-0_
  6
CONTINUOUS
 62
    2
 10
1286.3354227919044
 20
1118.5653996226074
 11
1292.2578008514884
 21
1124.4877776821932
  0
LINE
  8
_0-0_
  6
CONTINUOUS
 62
    2
 10
1283.7904937724834
 20
1118.8488977279349
 11
1292.2578008514884
 21
1127.316204806938
  0
LINE
  8
_0-0_
  6
CONTINUOUS
 62
    2
 10
1281.0032744238288
 20
1118.8901055040251
 11
1292.2578008514884
 21
1130.1446319316847
  0
LINE
  8
_0-0_
  6
CONTINUOUS
 62
    2
 10
1277.8897504679371
 20
1118.6050086728783
 11
1292.2578008514902
 21
1132.9730590564313
  0
LINE
  8
_0-0_
  6
CONTINUOUS
 62
    2
 10
1234.1488606690491
 20
1142.7463698678994
 11
1234.6512779960431
 21
1143.2487871948933
  0
LINE
  8
_0-0_
  6
CONTINUOUS
 62
    2
 10
1231.6467906053094
 20
1143.0727269289064
 11
1234.1788818230361
 21
1145.6048181466349
  0
LINE
  8
_0-0_
  6
CONTINUOUS
 62
    2
 10
1229.1447205415716
 20
1143.3990839899152
 11
1233.878946400615
 21
1148.1333098489604
  0
LINE
  8
_0-0_
  6
CONTINUOUS
 62
    2
 10
1226.6426504778337
 20
1143.7254410509222
 11
1233.7828777669201
 21
1150.8656683400086
  0
LINE
  8
_0-0_
  6
CONTINUOUS
 62
    2
 10
1224.7577638514904
 20
1144.6689815493255
 11
1233.9448988117474
 21
1153.8561165095825
  0
LINE
  8
_0-0_
  6
CONTINUOUS
 62
    2
 10
1224.7577638514886
 20
1147.4974086740704
 11
1234.47003285348
 21
1157.2096776760618
  0
LINE
  8
_0-0_
  6
CONTINUOUS
 62
    2
 10
1224.7577638514904
 20
1150.325835798817
 11
1232.862803953396
 21
1158.4308759007226
  0
LINE
  8
_0-0_
  6
CONTINUOUS
 62
    2
 10
1224.7577638514904
 20
1153.1542629235637
 11
1230.0343768286493
 21
1158.4308759007226
  0
LINE
  8
_0-0_
  6
CONTINUOUS
 62
    2
 10
1224.7577638514886
 20
1155.9826900483104
 11
1227.2059497039027
 21
1158.4308759007226
  0
LINE
  8
_0-0_
  6
CONTINUOUS
 62
    2
 10
1234.7577348514906
 20
1158.4308759007226
 11
1234.0242643880733
 21
1154.5601293686816
  0
LINE
  8
_0-0_
  6
CONTINUOUS
 62
    2
 10
1234.0242643880733
 20
1154.5601293686816
 11
1233.7820427615941
 21
1150.5698760408995
  0
LINE
  8
_0-0_
  6
CONTINUOUS
 62
    2
 10
1233.7820427615941
 20
1150.5698760408995
 11
1234.0384297536036
 21
1146.5813577455756
  0
LINE
  8
_0-0_
  6
CONTINUOUS
 62
    2
 10
1234.0384297536036
 20
1146.5813577455756
 11
1234.7856351750877
 21
1142.7157635928254
  0
LINE
  8
_0-0_
  6
CONTINUOUS
 62
    2
 10
1234.7856351750877
 20
1142.7157635928254
 11
1234.7999205922001
 21
1142.6614489833328
  0
LINE
  8
_0-0_
  6
CONTINUOUS
 62
    2
 10
1224.7577638514904
 20
1153.9206659007223
 11
1224.7577638514904
 21
1158.3614689007236
  0
TEXT
  8
_0-0_
 62
    7
 10
1429.6891920142098
 20
576.02721287347686
 40
40
 41
1
 50
0
  1
Ｂ
  0
LINE
  8
_0-0_
  6
CONTINUOUS
 62
    7
 10
672.13606690525205
 20
567.53106997205487
 11
1706.8525777203686
 21
567.53106997205487
  0
LINE
  8
_0-0_
  6
CONTINUOUS
 62
    7
 10
672.13606690525205
 20
167.53106997205509
 11
1706.8525777203686
 21
167.53106997205509
  0
LINE
  8
_0-0_
  6
CONTINUOUS
 62
    7
 10
672.13606690525205
 20
627.53106997205487
 11
1706.8525777203686
 21
627.53106997205487
  0
LINE
  8
_0-0_
  6
CONTINUOUS
 62
    7
 10
1189.4943223128103
 20
627.53106997205487
 11
1189.4943223128103
 21
167.53106997205509
  0
LINE
  8
_0-0_
  6
CONTINUOUS
 62
    7
 10
1706.8525777203686
 20
1633.3565543671129
 11
1706.8525777203686
 21
167.53106997205509
  0
TEXT
  8
_0-0_
 62
    7
 10
906.73245032900388
 20
575.67973412101037
 40
40
 41
1
 50
0
  1
Ａ
  0
LINE
  8
_0-0_
  6
CONTINUOUS
 62
    7
 10
1227.7577248514899
 20
1261.8306569007227
 11
1227.7577248514899
 21
1203.8308869007224
  0
LINE
  8
_0-0_
  6
CONTINUOUS
 62
    7
 10
1199.75780585149
 20
1261.8306569007227
 11
1199.75780585149
 21
1203.8308869007224
  0
LINE
  8
_0-0_
  6
CONTINUOUS
 62
    7
 10
1227.7577248514899
 20
1291.8307559007235
 11
1227.7577248514899
 21
1262.8308089007232
  0
LINE
  8
_0-0_
  6
CONTINUOUS
 62
    7
 10
1199.75780585149
 20
1291.8307559007235
 11
1199.75780585149
 21
1262.8308089007232
  0
TEXT
  8
_0-0_
 62
    7
 10
1331.295700049488
 20
1362.9522484540257
 40
24
 41
1
 50
0
  1
屋外側
  0
LINE
  8
_0-0_
  6
CONTINUOUS
 62
    2
 10
1277.7101508514897
 20
1124.0822633059261
 11
1287.8562358039107
 21
1134.2283482583471
  0
LINE
  8
_0-0_
  6
CONTINUOUS
 62
    2
 10
1277.7101508514897
 20
1126.9106904306709
 11
1285.3541657443584
 21
1134.5547053235396
  0
LINE
  8
_0-0_
  6
CONTINUOUS
 62
    2
 10
1277.7101508514897
 20
1129.7391175554176
 11
1282.8520956848042
 21
1134.8810623887321
  0
LINE
  8
_0-0_
  6
CONTINUOUS
 62
    2
 10
1277.7101508514897
 20
1132.5675446801624
 11
1280.3500256252501
 21
1135.2074194539227
  0
LINE
  8
_0-0_
  6
CONTINUOUS
 62
    2
 10
1277.7101508514897
 20
1135.3959718049091
 11
1277.8479555656959
 21
1135.5337765191152
  0
LINE
  8
_0-0_
  6
CONTINUOUS
 62
    2
 10
1277.7101508514897
 20
1121.2538361811794
 11
1290.3583058634649
 21
1133.9019911931546
  0
LINE
  8
_0-0_
  6
CONTINUOUS
 62
    2
 10
1292.2578065514751
 20
1116.8933563878643
 11
1288.9219918256681
 21
1118.0227373127184
  0
LINE
  8
_0-0_
  6
CONTINUOUS
 62
    2
 10
1288.9219918256681
 20
1118.0227373127184
 11
1285.3753690350907
 21
1118.7005167924904
  0
LINE
  8
_0-0_
  6
CONTINUOUS
 62
    2
 10
1285.3753690350907
 20
1118.7005167924904
 11
1281.725700518557
 21
1118.9061008406609
  0
LINE
  8
_0-0_
  6
CONTINUOUS
 62
    2
 10
1281.725700518557
 20
1118.9061008406609
 11
1278.0838796071205
 21
1118.6332428899561
  0
LINE
  8
_0-0_
  6
CONTINUOUS
 62
    2
 10
1278.0838796071205
 20
1118.6332428899561
 11
1277.7101508514902
 21
1118.5776172159322
  0
LINE
  8
_0-0_
  6
CONTINUOUS
 62
    2
 10
842.74235731494639
 20
451.85146659662951
 11
841.27541638811181
 21
444.10997353254737
  0
LINE
  8
_0-0_
  6
CONTINUOUS
 62
    2
 10
841.27541638811181
 20
444.10997353254737
 11
840.79097313515354
 21
436.12946687698326
  0
LINE
  8
_0-0_
  6
CONTINUOUS
 62
    2
 10
840.79097313515354
 20
436.12946687698326
 11
841.3037471191725
 21
428.15243028633523
  0
LINE
  8
_0-0_
  6
CONTINUOUS
 62
    2
 10
841.3037471191725
 20
428.15243028633523
 11
842.79815796214052
 21
420.42124198083485
  0
LINE
  8
_0-0_
  6
CONTINUOUS
 62
    2
 10
842.79815796214052
 20
420.42124198083485
 11
842.82672879636539
 21
420.31261276184972
  0
LINE
  8
_0-0_
  6
CONTINUOUS
 62
    2
 10
822.7424153149442
 20
446.95509489180495
 11
827.63878701977058
 21
451.85146659662951
  0
LINE
  8
_0-0_
  6
CONTINUOUS
 62
    2
 10
822.74241531494602
 20
441.29824064231161
 11
833.29564126926391
 21
451.85146659662951
  0
LINE
  8
_0-0_
  6
CONTINUOUS
 62
    2
 10
822.74241531494602
 20
435.64138639281828
 11
838.95249551875725
 21
451.85146659662951
  0
LINE
  8
_0-0_
  6
CONTINUOUS
 62
    2
 10
822.7424153149442
 20
429.98453214332494
 11
842.16695331892527
 21
449.40907014730601
  0
LINE
  8
_0-0_
  6
CONTINUOUS
 62
    2
 10
822.74241531494602
 20
424.32767789383342
 11
841.11668523546007
 21
442.7019478143493
  0
LINE
  8
_0-0_
  6
CONTINUOUS
 62
    2
 10
826.51218856763273
 20
422.44059689702863
 11
840.79264314580553
 21
436.7210514751996
  0
LINE
  8
_0-0_
  6
CONTINUOUS
 62
    2
 10
831.51632869510843
 20
421.78788277501462
 11
840.98478041319697
 21
431.25633449310317
  0
LINE
  8
_0-0_
  6
CONTINUOUS
 62
    2
 10
836.52046882258412
 20
421.13516865299698
 11
841.58465125803934
 21
426.1993510884522
  0
LINE
  8
_0-0_
  6
CONTINUOUS
 62
    2
 10
841.52460895006345
 20
420.48245453098298
 11
842.52944360405138
 21
421.4872891849709
  0
LINE
  8
_0-0_
  6
CONTINUOUS
 62
    2
 10
929.00638854783949
 20
372.1997321409408
 11
957.7424893149456
 21
400.9358329080469
  0
LINE
  8
_0-0_
  6
CONTINUOUS
 62
    2
 10
935.23343645962461
 20
372.7699258032344
 11
957.74248931494378
 21
395.27897865855357
  0
LINE
  8
_0-0_
  6
CONTINUOUS
 62
    2
 10
940.80787515693385
 20
372.68751025105212
 11
957.74248931494378
 21
389.62212440906023
  0
LINE
  8
_0-0_
  6
CONTINUOUS
 62
    2
 10
945.89773319577409
 20
372.12051404039903
 11
957.74248931494378
 21
383.96527015956872
  0
LINE
  8
_0-0_
  6
CONTINUOUS
 62
    2
 10
950.59246091862963
 20
371.15838751376305
 11
957.74248931494378
 21
378.3084159100772
  0
LINE
  8
_0-0_
  6
CONTINUOUS
 62
    2
 10
954.94376087543071
 20
369.85283322107443
 11
957.74248931494742
 21
372.65156166058932
  0
LINE
  8
_0-0_
  6
CONTINUOUS
 62
    2
 10
928.64718931494656
 20
405.78165840500242
 11
928.92279874335702
 21
406.05726783341288
  0
LINE
  8
_0-0_
  6
CONTINUOUS
 62
    2
 10
928.64718931494656
 20
400.1248041555109
 11
933.92693886246536
 21
405.40455370302789
  0
LINE
  8
_0-0_
  6
CONTINUOUS
 62
    2
 10
928.64718931494656
 20
394.46794990601757
 11
938.93107898157552
 21
404.75183957264653
  0
LINE
  8
_0-0_
  6
CONTINUOUS
 62
    2
 10
928.64718931494656
 20
388.81109565652605
 11
943.93521910068387
 21
404.09912544226336
  0
LINE
  8
_0-0_
  6
CONTINUOUS
 62
    2
 10
928.64718931494656
 20
383.15424140703453
 11
948.93935921978857
 21
403.44641131187655
  0
LINE
  8
_0-0_
  6
CONTINUOUS
 62
    2
 10
928.64718931494656
 20
377.4973871575412
 11
953.94349933889691
 21
402.79369718149155
  0
LINE
  8
_0-0_
  6
CONTINUOUS
 62
    2
 10
957.74250071491576
 20
368.7764275709111
 11
951.07087126330146
 21
371.03518942061908
  0
LINE
  8
_0-0_
  6
CONTINUOUS
 62
    2
 10
951.07087126330146
 20
371.03518942061908
 11
943.97762568214671
 21
372.3907483801633
  0
LINE
  8
_0-0_
  6
CONTINUOUS
 62
    2
 10
943.97762568214671
 20
372.3907483801633
 11
936.67828864907938
 21
372.801916476504
  0
LINE
  8
_0-0_
  6
CONTINUOUS
 62
    2
 10
936.67828864907938
 20
372.801916476504
 11
929.39464682620633
 21
372.25620057509491
  0
LINE
  8
_0-0_
  6
CONTINUOUS
 62
    2
 10
929.39464682620633
 20
372.25620057509491
 11
928.64718931494565
 21
372.14494922704688
  0
LINE
  8
_0-0_
  6
CONTINUOUS
 62
    4
 10
928.64718931494656
 20
214.67089664052332
 11
928.64718931494656
 21
406.05726783341288
  0
POINT
  8
_0-0_
 62
    7
 10
942.75965935177749
 20
388.05603718148177
  0
POINT
  8
_0-0_
 62
    7
 10
831.68997338364727
 20
436.4585242268804
  0
LINE
  8
_0-0_
  6
CONTINUOUS
 62
    7
 10
831.68997338364727
 20
436.4585242268804
 11
996.14633613430681
 21
480.52447381607999
  0
LINE
  8
_0-0_
  6
CONTINUOUS
 62
    7
 10
942.75965935177749
 20
388.05603718148177
 11
996.14633613430681
 21
480.52447381607999
  0
LINE
  8
_0-0_
  6
CONTINUOUS
 62
    7
 10
1366.8790359378436
 20
940.49616201541448
 11
1408.4200301671281
 21
1012.4472746174606
  0
POINT
  8
_0-0_
 62
    7
 10
1366.8790359378436
 20
940.49616201541448
  0
POINT
  8
_0-0_
 62
    7
 10
1286.9030829068852
 20
1123.6868402357741
  0
POINT
  8
_0-0_
 62
    7
 10
1229.1151358979714
 20
1151.5106665733992
  0
LINE
  8
_0-0_
  6
CONTINUOUS
 62
    7
 10
1229.1151358979714
 20
1151.5106665733992
 11
1316.4830380296335
 21
1174.9208253939796
  0
LINE
  8
_0-0_
  6
CONTINUOUS
 62
    7
 10
1286.9030829068852
 20
1123.6868402357741
 11
1316.4830380296335
 21
1174.9208253939796
  0
POINT
  8
_0-0_
 62
    7
 10
1261.8511876595676
 20
1138.4931934640545
  0
LINE
  8
_0-0_
  6
CONTINUOUS
 62
    7
 10
1261.8511876595676
 20
1138.4931934640545
 11
1327.7826796257596
 21
1252.6898873683167
  0
CIRCLE
  8
_0-0_
  6
DASHED2
 62
    1
 10
1258.5714548320211
 20
1144.3159067424886
 40
52.755020399010462
  0
CIRCLE
  8
_0-0_
  6
DASHED2
 62
    1
 10
1321.7101508514897
 20
935.43079690072318
 40
66.591868756255622
  0
TEXT
  8
_0-0_
 62
    7
 10
1253.8413721441848
 20
1193.834161473028
 40
24
 41
1
 50
0
  1
Ａ
  0
TEXT
  8
_0-0_
 62
    7
 10
1308.2129901090866
 20
995.60430430932593
 40
24
 41
1
 50
0
  1
Ｂ
  0
TEXT
  8
_0-0_
 62
    7
 10
946.89278712563839
 20
1361.7621465564289
 40
24
 41
1
 50
0
  1
ＰＨ屋内側
  0
TEXT
  8
_0-0_
 62
    7
 10
1324.4513888072288
 20
1254.1932942301928
 40
30
 41
1
 50
0
  1
水切板
  0
TEXT
  8
_0-0_
 62
    7
 10
1411.7035174750781
 20
1001.0415333943156
 40
30
 41
1
 50
0
  1
防水層
  0
TEXT
  8
_0-0_
 62
    7
 10
1323.2880865791649
 20
1165.3036745014533
 40
30
 41
1
 50
0
  1
ｼｰﾘﾝｸﾞ
  0
LINE
  8
_0-0_
  6
CONTINUOUS
 62
    7
 10
809.30481685149073
 20
823.43079690072318
 11
998.75777785148978
 21
823.43079690072318
  0
LINE
  8
_0-0_
  6
CONTINUOUS
 62
    7
 10
1398.7577778514897
 20
823.43079690072318
 11
1533.1415198514896
 21
823.43079690072318
  0
LINE
  8
_0-0_
  6
CONTINUOUS
 62
    7
 10
998.75777785148978
 20
756.46821290072239
 11
998.75777785148978
 21
823.43079690072318
  0
LINE
  8
_0-0_
  6
CONTINUOUS
 62
    7
 10
1398.7577778514897
 20
756.46821290072239
 11
1398.7577778514897
 21
823.43079690072318
  0
LINE
  8
_0-0_
  6
CONTINUOUS
 62
    7
 10
1136.7101388514893
 20
1093.4307849007228
 11
1271.7101508514897
 21
1082.1808099007239
  0
LINE
  8
_0-0_
  6
CONTINUOUS
 62
    7
 10
1136.7101388514893
 20
1093.4307849007228
 11
1136.7101388514893
 21
928.43079690072318
  0
LINE
  8
_0-0_
  6
CONTINUOUS
 62
    7
 10
924.71006985148972
 20
1085.4308079007233
 11
924.71006985148972
 21
928.43079690072318
  0
LINE
  8
_0-0_
  6
CONTINUOUS
 62
    7
 10
924.71006985148972
 20
1085.4308079007233
 11
1136.7101388514893
 21
1085.4308079007233
  0
LINE
  8
_0-0_
  6
CONTINUOUS
 62
    7
 10
906.71009385149057
 20
1093.4308469007237
 11
906.71009385149057
 21
963.43078890072229
  0
LINE
  8
_0-0_
  6
CONTINUOUS
 62
    7
 10
909.7100258514912
 20
963.43078890072229
 11
909.7100258514912
 21
1093.4308469007237
  0
LINE
  8
_0-0_
  6
CONTINUOUS
 62
    7
 10
896.71002685148972
 20
953.43078990072217
 11
809.30481685149073
 21
953.43078990072217
  0
LINE
  8
_0-0_
  6
CONTINUOUS
 62
    7
 10
896.71002685148972
 20
950.43078990072217
 11
809.30481685149073
 21
950.43078990072217
  0
LINE
  8
_0-0_
  6
CONTINUOUS
 62
    7
 10
916.71009285149023
 20
1103.4308459007239
 11
1108.7101578514903
 21
1103.4308459007239
  0
LINE
  8
_0-0_
  6
CONTINUOUS
 62
    7
 10
1108.7101578514903
 20
1100.4307899007222
 11
916.71009285149023
 21
1100.4307899007222
  0
ARC
  8
_0-0_
  6
CONTINUOUS
 62
    7
 10
896.71002685148972
 20
963.43078890072229
 40
10.000067000000399
 50
270
 51
0
  0
ARC
  8
_0-0_
  6
CONTINUOUS
 62
    7
 10
896.71002685148972
 20
963.43078890072229
 40
12.999999000000116
 50
270
 51
0
  0
ARC
  8
_0-0_
  6
CONTINUOUS
 62
    7
 10
916.71009285149023
 20
1093.4308469007237
 40
9.9999990000001162
 50
90
 51
180
  0
ARC
  8
_0-0_
  6
CONTINUOUS
 62
    7
 10
916.71009285149023
 20
1093.4308469007237
 40
6.9999990000001162
 50
89.770816709356467
 51
180
  0
ARC
  8
_0-0_
  6
CONTINUOUS
 62
    7
 10
1108.7101578514903
 20
1113.4307889007223
 40
9.9999990000001162
 50
270
 51
0
  0
ARC
  8
_0-0_
  6
CONTINUOUS
 62
    7
 10
1108.7101578514903
 20
1113.4307889007223
 40
12.999999000000116
 50
270
 51
0
  0
LINE
  8
_0-0_
  6
CONTINUOUS
 62
    7
 10
1112.7101458514899
 20
1173.4308629007237
 11
1128.5798848514896
 21
1173.4308629007237
  0
LINE
  8
_0-0_
  6
CONTINUOUS
 62
    7
 10
1114.2101258514904
 20
1174.9308429007224
 11
1114.2101258514904
 21
1201.9308579007238
  0
LINE
  8
_0-0_
  6
CONTINUOUS
 62
    7
 10
1112.7101458514899
 20
1203.4308379007225
 11
1112.7101458514899
 21
1173.4308629007237
  0
LINE
  8
_0-0_
  6
CONTINUOUS
 62
    7
 10
1114.2101258514904
 20
1201.9308579007238
 11
1187.7101458514899
 21
1201.9308579007238
  0
LINE
  8
_0-0_
  6
CONTINUOUS
 62
    7
 10
1136.7101388514893
 20
1407.9188809007237
 11
1136.7101388514893
 21
1203.4308379007225
  0
LINE
  8
_0-0_
  6
CONTINUOUS
 62
    7
 10
1187.7101458514899
 20
1407.9188809007237
 11
1187.7101458514899
 21
1201.9308579007238
  0
LINE
  8
_0-0_
  6
CONTINUOUS
 62
    7
 10
1112.7101458514899
 20
1203.4308379007225
 11
1187.7101458514899
 21
1203.4308379007225
  0
LINE
  8
_0-0_
  6
CONTINUOUS
 62
    7
 10
1118.71015685149
 20
1113.4307889007223
 11
1118.71015685149
 21
1173.4308629007237
  0
LINE
  8
_0-0_
  6
CONTINUOUS
 62
    7
 10
1121.71015685149
 20
1113.4307889007223
 11
1121.71015685149
 21
1173.4308629007237
  0
LINE
  8
_0-0_
  6
CONTINUOUS
 62
    7
 10
1174.7577228514892
 20
1197.4308559007231
 11
1174.7577228514892
 21
1182.4308679007236
  0
LINE
  8
_0-0_
  6
CONTINUOUS
 62
    7
 10
1173.2577428514905
 20
1195.9308759007226
 11
1173.2577428514905
 21
1181.1391079007235
  0
LINE
  8
_0-0_
  6
CONTINUOUS
 62
    7
 10
1174.7577228514892
 20
1182.4308679007236
 11
1234.7577348514897
 21
1173.4308629007237
  0
LINE
  8
_0-0_
  6
CONTINUOUS
 62
    7
 10
1173.2577428514905
 20
1181.1391079007235
 11
1233.2577548514892
 21
1172.1391039007221
  0
LINE
  8
_0-0_
  6
CONTINUOUS
 62
    7
 10
1218.2577678514899
 20
1159.9308559007231
 11
1233.2577548514892
 21
1159.9308559007231
  0
LINE
  8
_0-0_
  6
CONTINUOUS
 62
    7
 10
1234.7577348514897
 20
1173.4308629007237
 11
1234.7577348514897
 21
1158.4308759007226
  0
LINE
  8
_0-0_
  6
CONTINUOUS
 62
    7
 10
1233.2577548514892
 20
1172.1391039007221
 11
1233.2577548514892
 21
1159.9308559007231
  0
LINE
  8
_0-0_
  6
CONTINUOUS
 62
    7
 10
1218.2577678514899
 20
1159.9308559007231
 11
1218.2577678514899
 21
1143.4308879007231
  0
LINE
  8
_0-0_
  6
CONTINUOUS
 62
    7
 10
1219.7577478514904
 20
1158.4308759007226
 11
1219.7577478514904
 21
1143.4308879007231
  0
LINE
  8
_0-0_
  6
CONTINUOUS
 62
    7
 10
1218.2577678514899
 20
1143.4308879007231
 11
1219.7577478514904
 21
1143.4308879007231
  0
LINE
  8
_0-0_
  6
CONTINUOUS
 62
    7
 10
1224.7577638514904
 20
1153.9206659007223
 11
1223.2577838514899
 21
1153.9206659007223
  0
LINE
  8
_0-0_
  6
CONTINUOUS
 62
    7
 10
1223.2577838514899
 20
1153.9206659007223
 11
1223.2577838514899
 21
1142.6542359007226
  0
LINE
  8
_0-0_
  6
CONTINUOUS
 62
    7
 10
1224.7577638514904
 20
1153.9206659007223
 11
1224.7577638514904
 21
1143.9712959007238
  0
LINE
  8
_0-0_
  6
CONTINUOUS
 62
    7
 10
1224.7577638514904
 20
1143.9712959007238
 11
1293.7577818514892
 21
1134.9712909007239
  0
LINE
  8
_0-0_
  6
CONTINUOUS
 62
    7
 10
1223.2577838514899
 20
1142.6542359007226
 11
1292.2578008514902
 21
1133.6542309007227
  0
LINE
  8
_0-0_
  6
CONTINUOUS
 62
    7
 10
1293.7577818514892
 20
1134.9712909007239
 11
1293.7577818514892
 21
1113.9713209007232
  0
LINE
  8
_0-0_
  6
CONTINUOUS
 62
    7
 10
1292.2578008514902
 20
1133.6542309007227
 11
1292.2578008514902
 21
1113.9713209007232
  0
LINE
  8
_0-0_
  6
CONTINUOUS
 62
    7
 10
1292.2578008514902
 20
1113.9713209007232
 11
1293.7577818514892
 21
1113.9713209007232
  0
LINE
  8
_0-0_
  6
CONTINUOUS
 62
    7
 10
1271.7101508514897
 20
928.43079690072318
 11
1533.1415198514896
 21
928.43079690072318
  0
LINE
  8
_0-0_
  6
CONTINUOUS
 62
    7
 10
1271.7101508514897
 20
928.43079690072318
 11
1271.7101508514897
 21
1136.3343599902305
  0
CIRCLE
  8
_0-0_
  6
CONTINUOUS
 62
    7
 10
1198.7577778514897
 20
1375.1677459007233
 40
1.25
  0
CIRCLE
  8
_0-0_
  6
CONTINUOUS
 62
    7
 10
1198.7577778514897
 20
1375.1677459007233
 40
2.5
  0
LINE
  8
_0-0_
  6
CONTINUOUS
 62
    7
 10
1084.9669458514909
 20
1375.1677459007233
 11
1306.0883878514906
 21
1375.1677459007233
  0
LINE
  8
_0-0_
  6
CONTINUOUS
 62
    7
 10
1099.4557848514905
 20
1379.050076900724
 11
1084.9669458514909
 21
1375.1677459007233
  0
LINE
  8
_0-0_
  6
CONTINUOUS
 62
    7
 10
1084.9669458514909
 20
1375.1677459007233
 11
1099.4557848514905
 21
1371.2854159007229
  0
LINE
  8
_0-0_
  6
CONTINUOUS
 62
    7
 10
1291.5994878514903
 20
1379.050076900724
 11
1306.0883878514906
 21
1375.1677459007233
  0
LINE
  8
_0-0_
  6
CONTINUOUS
 62
    7
 10
1306.0883878514906
 20
1375.1677459007233
 11
1291.5994878514903
 21
1371.2854159007229
  0
LINE
  8
_0-0_
  6
CONTINUOUS
 62
    7
 10
1234.7577348514897
 20
1158.4308759007226
 11
1246.7101308514902
 21
1158.4308759007226
  0
LINE
  8
_0-0_
  6
CONTINUOUS
 62
    7
 10
1234.7577348514897
 20
1158.4308759007226
 11
1234.7577348514897
 21
1407.9188809007237
  0
LINE
  8
_0-0_
  6
CONTINUOUS
 62
    7
 10
1199.75780585149
 20
1188.8308989007228
 11
1227.7577248514899
 21
1188.8308989007228
  0
LINE
  8
_0-0_
  6
CONTINUOUS
 62
    7
 10
1198.7577778514897
 20
1187.8308709007224
 11
1228.7577528514903
 21
1187.8308709007224
  0
ARC
  8
_0-0_
  6
CONTINUOUS
 62
    7
 10
1213.7577648514889
 20
1202.830859900721
 40
3.999999072974235
 50
112.02387131587876
 51
67.976128684080152
  0
ARC
  8
_0-0_
  6
CONTINUOUS
 62
    7
 10
1213.7577648514889
 20
1202.830859900721
 40
5.0000285827050082
 50
112.02387131587513
 51
67.976128684075547
  0
LINE
  8
_0-0_
  6
CONTINUOUS
 62
    7
 10
1211.8827898514901
 20
1207.4660249007238
 11
1212.257793773766
 21
1206.5389698437771
  0
LINE
  8
_0-0_
  6
CONTINUOUS
 62
    7
 10
1215.6327398514895
 20
1207.466024900722
 11
1215.2577359292118
 21
1206.5389698437762
  0
ARC
  8
_0-0_
  6
CONTINUOUS
 62
    7
 10
1213.7577648514907
 20
1262.8308089007237
 40
4.000000000000596
 50
292.02386499999767
 51
247.97613500000236
  0
ARC
  8
_0-0_
  6
CONTINUOUS
 62
    7
 10
1213.7577648514907
 20
1262.8308089007237
 40
5.0000000000003864
 50
292.02386499999795
 51
247.9761350000021
  0
LINE
  8
_0-0_
  6
CONTINUOUS
 62
    7
 10
1215.6327286222331
 20
1258.1956701909971
 11
1215.2577358680846
 21
1259.1226979329422
  0
LINE
  8
_0-0_
  6
CONTINUOUS
 62
    7
 10
1211.8828010807483
 20
1258.1956701909971
 11
1212.257793834895
 21
1259.1226979329422
  0
CIRCLE
  8
_0-0_
  6
CONTINUOUS
 62
    7
 10
1183.8053922128838
 20
1192.8886145037895
 40
1.2843322407210123
  0
CIRCLE
  8
_0-0_
  6
CONTINUOUS
 62
    7
 10
1183.8053922128838
 20
1192.8886145037895
 40
2.5331176404733706
  0
CIRCLE
  8
_0-0_
  6
CONTINUOUS
 62
    7
 10
1183.8053922128838
 20
1192.8886145037895
 40
7.6084332730519142
  0
LINE
  8
_0-0_
  6
CONTINUOUS
 62
    7
 10
1210.7577396793858
 20
1286.4132203389668
 11
1216.7577900235938
 21
1286.4132203389672
  0
LINE
  8
_0-0_
  6
CONTINUOUS
 62
    7
 10
1210.7577396793858
 20
1286.4132203389668
 11
1210.7577396793858
 21
1407.9188809007237
  0
LINE
  8
_0-0_
  6
CONTINUOUS
 62
    7
 10
1216.7577900235938
 20
1286.4132203389672
 11
1216.7577900235938
 21
1407.9188809007237
  0
ARC
  8
_0-0_
  6
CONTINUOUS
 62
    7
 10
1213.7577648514889
 20
1292.3308319007228
 40
6.6346271657932299
 50
184.32269107201483
 51
243.11656212723824
  0
ARC
  8
_0-0_
  6
CONTINUOUS
 62
    7
 10
1213.7577648514889
 20
1292.3308319007228
 40
6.6346271657932299
 50
296.88343787276705
 51
355.67730892798511
  0
ARC
  8
_0-0_
  6
CONTINUOUS
 62
    7
 10
1213.7577648514889
 20
1292.3308319007228
 40
6.6346271657932299
 50
4.322691072014865
 51
63.11656212723296
  0
ARC
  8
_0-0_
  6
CONTINUOUS
 62
    7
 10
1213.7577648514889
 20
1292.3308319007228
 40
6.6346271657932299
 50
116.88343787276175
 51
175.67730892798517
  0
LINE
  8
_0-0_
  6
CONTINUOUS
 62
    7
 10
762.16355773024782
 20
312.22494080962224
 11
916.64718931494656
 21
299.35133459663029
  0
LINE
  8
_0-0_
  6
CONTINUOUS
 62
    7
 10
762.16355773024782
 20
493.93826483187058
 11
842.74235731494639
 21
481.8514405966298
  0
LINE
  8
_0-0_
  6
CONTINUOUS
 62
    7
 10
842.74235731494639
 20
481.8514405966298
 11
842.74235731494639
 21
451.85146659662951
  0
LINE
  8
_0-0_
  6
CONTINUOUS
 62
    7
 10
842.74235731494639
 20
451.85146659662951
 11
812.7423833149461
 21
451.85146659662951
  0
LINE
  8
_0-0_
  6
CONTINUOUS
 62
    7
 10
812.7423833149461
 20
451.85146659662951
 11
812.7423833149461
 21
421.85149059663036
  0
LINE
  8
_0-0_
  6
CONTINUOUS
 62
    7
 10
762.16355773024782
 20
490.90475137889098
 11
839.74239731494538
 21
479.26792259662852
  0
LINE
  8
_0-0_
  6
CONTINUOUS
 62
    7
 10
839.74239731494538
 20
479.26792259662852
 11
839.74239731494538
 21
454.85142659663052
  0
LINE
  8
_0-0_
  6
CONTINUOUS
 62
    7
 10
960.74245131494547
 20
404.93229659663029
 11
822.74241531494602
 21
422.93230659663004
  0
LINE
  8
_0-0_
  6
CONTINUOUS
 62
    7
 10
957.7424893149456
 20
402.29817659662967
 11
957.7424893149456
 21
362.93235659662878
  0
LINE
  8
_0-0_
  6
CONTINUOUS
 62
    7
 10
960.74245131494547
 20
404.93229659663029
 11
960.74245131494547
 21
362.93235659662878
  0
LINE
  8
_0-0_
  6
CONTINUOUS
 62
    7
 10
960.74245131494547
 20
362.93235659662878
 11
957.7424893149456
 21
362.93235659662878
  0
LINE
  8
_0-0_
  6
CONTINUOUS
 62
    7
 10
819.74245531494682
 20
420.29818659662942
 11
819.74245531494682
 21
442.83104659662877
  0
LINE
  8
_0-0_
  6
CONTINUOUS
 62
    7
 10
819.74245531494682
 20
442.83104659662877
 11
822.74241531494602
 21
442.83104659662877
  0
LINE
  8
_0-0_
  6
CONTINUOUS
 62
    7
 10
822.74241531494602
 20
442.83104659662877
 11
822.74241531494602
 21
422.93230659663004
  0
LINE
  8
_0-0_
  6
CONTINUOUS
 62
    7
 10
809.7424233149469
 20
421.85149059663036
 11
812.7423833149461
 21
421.85149059663036
  0
LINE
  8
_0-0_
  6
CONTINUOUS
 62
    2
 10
822.88122931494593
 20
451.85146659662951
 11
822.74241531494602
 21
451.7126525966296
  0
LINE
  8
_0-0_
  6
CONTINUOUS
 62
    2
 10
822.74241531494602
 20
442.83104659662877
 11
822.74241531494602
 21
451.85146659662951
  0
LINE
  8
_0-0_
  6
CONTINUOUS
 62
    7
 10
839.74239731494538
 20
454.85142659663052
 11
809.7424233149469
 21
454.85142659663052
  0
LINE
  8
_0-0_
  6
CONTINUOUS
 62
    7
 10
809.7424233149469
 20
421.85149059663036
 11
809.7424233149469
 21
454.85142659663052
  0
LINE
  8
_0-0_
  6
CONTINUOUS
 62
    7
 10
819.74245531494682
 20
420.29818659662942
 11
957.7424893149456
 21
402.29817659662967
  0
LINE
  8
_0-0_
  6
CONTINUOUS
 62
    7
 10
916.64718931494656
 20
214.67089664052332
 11
916.64718931494656
 21
407.65846659663021
  0
LINE
  8
_0-0_
  6
CONTINUOUS
 62
    7
 10
1136.7101388514893
 20
928.43079690072318
 11
809.30481685149073
 21
928.43079690072318
  0
LINE
  8
_0-0_
  6
CONTINUOUS
 62
    7
 10
1114.2101258514904
 20
1174.9308429007224
 11
1128.5798848514896
 21
1174.9308429007224
  0
LINE
  8
_0-0_
  6
CONTINUOUS
 62
    7
 10
1128.5798848514896
 20
1173.4308629007237
 11
1128.5798848514896
 21
1174.9308429007224
  0
LINE
  8
_0-0_
  6
CONTINUOUS
 62
    7
 10
1209.7577148514902
 20
1291.8307559007235
 11
1199.75780585149
 21
1291.8307559007235
  0
LINE
  8
_0-0_
  6
CONTINUOUS
 62
    7
 10
1209.7577148514902
 20
1292.8309079007222
 11
1209.7577148514902
 21
1291.8307559007235
  0
LINE
  8
_0-0_
  6
CONTINUOUS
 62
    7
 10
1217.7578148514895
 20
1292.8309079007222
 11
1217.7578148514895
 21
1291.8307559007235
  0
LINE
  8
_0-0_
  6
CONTINUOUS
 62
    7
 10
1217.7578148514895
 20
1291.8307559007235
 11
1227.7577248514899
 21
1291.8307559007235
  0
LINE
  8
_0-0_
  6
CONTINUOUS
 62
    7
 10
1217.7578148514895
 20
1292.8309079007222
 11
1228.7577528514903
 21
1292.8309079007222
  0
LINE
  8
_0-0_
  6
CONTINUOUS
 62
    7
 10
1209.7577148514902
 20
1292.8309079007222
 11
1198.7577778514897
 21
1292.8309079007222
  0
LINE
  8
_0-0_
  6
CONTINUOUS
 62
    7
 10
1198.7577778514897
 20
1187.8308709007224
 11
1198.7577778514897
 21
1407.9188809007237
  0
LINE
  8
_0-0_
  6
CONTINUOUS
 62
    7
 10
1228.7577528514903
 20
1187.8308709007224
 11
1228.7577528514903
 21
1407.9188809007237
  0
LINE
  8
_0-0_
  6
CONTINUOUS
 62
    7
 10
1208.7577648514889
 20
1262.8308089007232
 11
1198.7577778514897
 21
1262.8308089007232
  0
LINE
  8
_0-0_
  6
CONTINUOUS
 62
    7
 10
1208.85881639525
 20
1261.8306569007227
 11
1198.7577778514897
 21
1261.8306569007227
  0
LINE
  8
_0-0_
  6
CONTINUOUS
 62
    7
 10
1228.7577528514903
 20
1262.8308089007232
 11
1218.7577648514907
 21
1262.8308089007232
  0
LINE
  8
_0-0_
  6
CONTINUOUS
 62
    7
 10
1228.7577528514903
 20
1261.8306569007227
 11
1218.6567133077297
 21
1261.8306569007227
  0
LINE
  8
_0-0_
  6
CONTINUOUS
 62
    7
 10
1142.7101208514905
 20
1197.4308559007231
 11
1174.7577228514892
 21
1197.4308559007231
  0
LINE
  8
_0-0_
  6
CONTINUOUS
 62
    7
 10
1173.2577428514905
 20
1195.9308759007226
 11
1142.7101208514905
 21
1195.9308759007226
  0
LINE
  8
_0-0_
  6
CONTINUOUS
 62
    7
 10
1142.7101208514905
 20
1197.4308559007231
 11
1142.7101208514905
 21
1195.9308759007226
  0
LINE
  8
_0-0_
  6
CONTINUOUS
 62
    7
 10
1198.7577778514897
 20
1203.8308869007224
 11
1208.8587910814822
 21
1203.8308869007224
  0
LINE
  8
_0-0_
  6
CONTINUOUS
 62
    7
 10
1198.7577778514897
 20
1202.8308589007238
 11
1208.7577362687825
 21
1202.8308589007238
  0
LINE
  8
_0-0_
  6
CONTINUOUS
 62
    7
 10
1218.6567679977561
 20
1203.8308869007224
 11
1228.7577528514903
 21
1203.8308869007224
  0
LINE
  8
_0-0_
  6
CONTINUOUS
 62
    7
 10
1228.7577528514903
 20
1202.8308589007238
 11
1218.7577648514907
 21
1202.8308589007238
  0
LINE
  8
_0-0_
  6
CONTINUOUS
 62
    7
 10
1288.731341912513
 20
756.46821290072239
 11
1460.6939259125138
 21
928.43079690072318
  0
LINE
  8
_0-0_
  6
CONTINUOUS
 62
    7
 10
1281.6602741006463
 20
756.46821290072239
 11
1453.6228581006471
 21
928.43079690072273
  0
LINE
  8
_0-0_
  6
CONTINUOUS
 62
    7
 10
1274.5892062887797
 20
756.46821290072239
 11
1446.5517902887823
 21
928.43079690072364
  0
LINE
  8
_0-0_
  6
CONTINUOUS
 62
    7
 10
1062.457171932816
 20
756.4682129007233
 11
1271.7101508514897
 21
965.72119181939615
  0
LINE
  8
_0-0_
  6
CONTINUOUS
 62
    7
 10
1055.3861041209511
 20
756.46821290072239
 11
1271.7101508514897
 21
972.79225963126191
  0
LINE
  8
_0-0_
  6
CONTINUOUS
 62
    7
 10
1048.3150363090863
 20
756.46821290072239
 11
1271.7101508514897
 21
979.86332744312676
  0
LINE
  8
_0-0_
  6
CONTINUOUS
 62
    7
 10
903.14558595312349
 20
823.43079690072318
 11
1008.1455859531235
 21
928.43079690072318
  0
LINE
  8
_0-0_
  6
CONTINUOUS
 62
    7
 10
1136.7101388514893
 20
1056.9953497990905
 11
1170.3428541552221
 21
1090.6280651028233
  0
LINE
  8
_0-0_
  6
CONTINUOUS
 62
    7
 10
896.07451814125682
 20
823.43079690072318
 11
1001.0745181412568
 21
928.43079690072273
  0
LINE
  8
_0-0_
  6
CONTINUOUS
 62
    7
 10
1136.7101388514893
 20
1064.0664176109576
 11
1163.815713476195
 21
1091.1719922356629
  0
LINE
  8
_0-0_
  6
CONTINUOUS
 62
    7
 10
889.00345032939197
 20
823.43079690072364
 11
994.00345032939197
 21
928.43079690072318
  0
LINE
  8
_0-0_
  6
CONTINUOUS
 62
    7
 10
1136.7101388514893
 20
1071.1374854228216
 11
1157.2885727971716
 21
1091.7159193685029
  0
LINE
  8
_0-0_
  6
CONTINUOUS
 62
    7
 10
924.71006985148972
 20
985.01417794187
 11
981.29345089263745
 21
928.43079690072227
  0
LINE
  8
_0-0_
  6
CONTINUOUS
 62
    7
 10
924.71006985149154
 20
992.08524575373531
 11
988.3645187045023
 21
928.43079690072409
  0
LINE
  8
_0-0_
  6
CONTINUOUS
 62
    7
 10
1050.5676098723306
 20
1085.4308079007242
 11
1136.7101388514911
 21
999.28827892156369
  0
LINE
  8
_0-0_
  6
CONTINUOUS
 62
    7
 10
1057.6386776841973
 20
1085.4308079007228
 11
1136.7101388514893
 21
1006.3593467334317
  0
TEXT
  8
_0-0_
 62
    7
 10
1001.0988581212915
 20
476.35378049865994
 40
21.617968000000001
 41
1
 50
0
  1
ｼｰﾘﾝｸﾞ
  0
LINE
  8
_0-0_
  6
CONTINUOUS
 62
    4
 10
1277.7101508514897
 20
937.43079690072318
 11
1277.7101508514897
 21
1135.5517510526124
  0
LINE
  8
_0-0_
  6
CONTINUOUS
 62
    4
 10
1277.7101508514897
 20
937.43079690072318
 11
1533.1415198514896
 21
937.43079690072318
  0
LINE
  8
_0-0_
  6
CONTINUOUS
 62
    7
 10
1224.982929084159
 20
421.11056927845925
 11
1299.5065169885729
 21
495.63415718287229
  0
LINE
  8
_0-0_
  6
CONTINUOUS
 62
    7
 10
1224.982929084159
 20
437.02047185515653
 11
1283.5966144118756
 21
495.63415718287229
  0
LINE
  8
_0-0_
  6
CONTINUOUS
 62
    7
 10
1224.982929084159
 20
452.93037443185199
 11
1267.6867118351802
 21
495.63415718287229
  0
LINE
  8
_0-0_
  6
CONTINUOUS
 62
    7
 10
1314.4042675121473
 20
278.48321155703047
 11
1674.575870131539
 21
278.48321155703047
  0
LINE
  8
_0-0_
  6
CONTINUOUS
 62
    7
 10
1510.2546505557075
 20
197.26540829569308
 11
1591.4724538170431
 21
278.48321155702774
  0
LINE
  8
_0-0_
  6
CONTINUOUS
 62
    7
 10
1494.3447479790102
 20
197.26540829569308
 11
1575.5625512403458
 21
278.48321155702774
  0
LINE
  8
_0-0_
  6
CONTINUOUS
 62
    7
 10
1478.4348454023147
 20
197.26540829569308
 11
1559.6526486636521
 21
278.48321155702774
  0
LINE
  8
_0-0_
  6
CONTINUOUS
 62
    7
 10
1314.4042675121473
 20
278.48321155703047
 11
1314.4042675121473
 21
495.63415718287229
  0
LINE
  8
_0-0_
  6
CONTINUOUS
 62
    7
 10
1579.6392639290862
 20
278.48321155703047
 11
1611.0039719442429
 21
332.80847940384479
  0
POINT
  8
_0-0_
 62
    7
 10
1579.6392639290862
 20
278.48321155703047
  0
TEXT
  8
_0-0_
 62
    7
 10
1605.5987040561213
 20
334.16857724081956
 40
21.617968000000001
 41
1
 50
0
  1
ﾌﾟﾗｲﾏｰ
  0
LINE
  8
_0-0_
  6
CONTINUOUS
 62
    4
 10
1327.9042675121473
 20
495.63415718287229
 11
1327.9042675121473
 21
298.73321155703047
  0
LINE
  8
_0-0_
  6
CONTINUOUS
 62
    4
 10
1327.9042675121473
 20
298.73321155703047
 11
1674.575870131539
 21
298.73321155703047
  0
LINE
  8
_0-0_
  6
CONTINUOUS
 62
    7
 10
1439.5761767649692
 20
287.49074111321784
 11
1502.9890577275473
 21
397.32507279471997
  0
TEXT
  8
_0-0_
 62
    7
 10
1506.8496865528905
 20
387.89896467727999
 40
21.617968000000001
 41
1
 50
0
  1
ｳﾚﾀﾝ防水
  0
POINT
  8
_0-0_
 62
    7
 10
1439.5761767649692
 20
287.49074111321784
  0
LINE
  8
_0-0_
  6
CONTINUOUS
 62
    7
 10
1356.9109529134039
 20
298.73321155703047
 11
1448.1678239981993
 21
456.79474881565693
  0
POINT
  8
_0-0_
 62
    7
 10
1356.9109529134039
 20
298.73321155703047
  0
TEXT
  8
_0-0_
 62
    7
 10
1454.1353691817567
 20
447.64185769789697
 40
21.617968000000001
 41
1
 50
0
  1
ﾄｯﾌﾟｺｰﾄ
  0
LINE
  8
_0-0_
  6
CONTINUOUS
 62
    7
 10
672.13606690525205
 20
1633.3565543671129
 11
1706.8525777203686
 21
1633.3565543671129
  0
LINE
  8
_0-0_
  6
CONTINUOUS
 62
    7
 10
672.13606690525205
 20
1553.3565543671129
 11
1706.8525777203686
 21
1553.3565543671129
  0
LINE
  8
_0-0_
  6
CONTINUOUS
 62
    7
 10
672.13606690525205
 20
1473.3565543671129
 11
1706.8525777203686
 21
1473.3565543671129
  0
LINE
  8
_0-0_
  6
CONTINUOUS
 62
    7
 10
1189.4943223128103
 20
1633.3565543671129
 11
1189.4943223128103
 21
1473.3565543671129
  0
TEXT
  8
_0-0_
 62
    7
 10
1213.4943223128103
 20
1577.3565543671129
 40
20
 41
1
 50
0
  1
構造：ＲＣ造
  0
TEXT
  8
_0-0_
 62
    7
 10
1213.4943223128103
 20
1497.3565543671129
 40
20
 41
1
 50
0
  1
下地：コンクリートスラブ
  0
TEXT
  8
_0-0_
 62
    7
 10
696.13606690525205
 20
1577.3565543671129
 40
20
 41
1
 50
0
  1
図面番号：UPM-10-sash-01
  0
TEXT
  8
_0-0_
 62
    7
 10
696.13606690525205
 20
1497.3565543671129
 40
20
 41
1
 50
0
  1
施工部位：サッシ廻り
  0
ENDSEC
  0
EOF
