  0
SECTION
  2
HEADER
  9
$ACADVER
  1
AC1009
  9
$INSBASE
 10
0
 20
0
 30
0
  9
$EXTMIN
 10
0
 20
0
  9
$EXTMAX
 10
2378
 20
1682
  9
$LIMMIN
 10
0
 20
0
  9
$LIMMAX
 10
2378
 20
1682
  9
$LTSCALE
 40
1
  0
ENDSEC
  0
SECTION
  2
TABLES
  0
TABLE
  2
LTYPE
 70
     9
  0
LTYPE
  2
CONTINUOUS
 70
    64
  3
実線
 72
    65
 73
     0
 40
0.0
  0
LTYPE
  2
DASHED1
 70
    64
  3
--  --  --  --  --  --  --  --  
 72
    65
 73
     2
 40
2.5
 49
1.25
 49
-1.25
  0
LTYPE
  2
DASHED2
 70
    64
  3
----    ----    ----    ----    
 72
    65
 73
     2
 40
5.0
 49
2.5
 49
-2.5
  0
LTYPE
  2
DASHED3
 70
    64
  3
------  ------  ------  ------  
 72
    65
 73
     2
 40
5.0
 49
3.75
 49
-1.25
  0
LTYPE
  2
CENTER1
 70
    64
  3
----- - ----- - ----- - ----- - 
 72
    65
 73
     4
 40
10.0
 49
6.25
 49
-1.25
 49
1.25
 49
-1.25
  0
LTYPE
  2
CENTER2
 70
    64
  3
----------  --  ----------  --  
 72
    65
 73
     4
 40
20.0
 49
12.5
 49
-2.5
 49
2.5
 49
-2.5
  0
LTYPE
  2
PHANTOM1
 70
    64
  3
--- - - --- - - --- - - --- - - 
 72
    65
 73
     6
 40
10.0
 49
3.25
 49
-1.25
 49
1.25
 49
-1.25
 49
1.25
 49
-1.25
  0
LTYPE
  2
PHANTOM2
 70
    64
  3
--------  -  -  --------  -  -  
 72
    65
 73
     6
 40
20.0
 49
10.0
 49
-2.5
 49
1.25
 49
-2.5
 49
1.25
 49
-2.5
  0
LTYPE
  2
DOT
 70
    64
  3
-   -   -   -   -   -   -   -   
 72
    65
 73
     2
 40
2.5
 49
0.625
 49
-1.875
  0
LTYPE
  2
DUMMY
 70
    64
  3
ダミー
 72
    65
 73
     0
 40
0.0
  0
LTYPE
  2
RAND1
 70
    64
  3
ランダム線1
 72
    65
 73
     4
 40
10.0
 49
1.0
 49
-2.0
 49
3.0
 49
-4.0
  0
LTYPE
  2
RAND2
 70
    64
  3
ランダム線2
 72
    65
 73
     4
 40
14.0
 49
2.0
 49
-3.0
 49
4.0
 49
-5.0
  0
LTYPE
  2
RAND3
 70
    64
  3
ランダム線3
 72
    65
 73
     4
 40
18.0
 49
3.0
 49
-4.0
 49
5.0
 49
-6.0
  0
LTYPE
  2
RAND4
 70
    64
  3
ランダム線4
 72
    65
 73
     4
 40
22.0
 49
4.0
 49
-5.0
 49
6.0
 49
-7.0
  0
LTYPE
  2
RAND5
 70
    64
  3
ランダム線5
 72
    65
 73
     4
 40
26.0
 49
5.0
 49
-6.0
 49
7.0
 49
-8.0
  0
LTYPE
  2
LONG1
 70
    64
  3
----------  --  ----------  --  
 72
    65
 73
     4
 40
40.0
 49
32.5
 49
-2.5
 49
2.5
 49
-2.5
  0
LTYPE
  2
LONG2
 70
    64
  3
--------  -  -  --------  -  -  
 72
    65
 73
     6
 40
40.0
 49
30.0
 49
-2.5
 49
1.25
 49
-2.5
 49
1.25
 49
-2.5
  0
LTYPE
  2
LONG3
 70
    64
  3
+++++++++++++++..+++++++++++++++
 72
    65
 73
     2
 40
40.0
 49
37.5
 49
-2.5
  0
LTYPE
  2
LONG4
 70
    64
  3
+++++++++++++++..+++++++++++++++
 72
    65
 73
     2
 40
80.0
 49
75.0
 49
-5.0
  0
LTYPE
  2
LONG5
 70
    64
  3
----------  --  ----------  --  
 72
    65
 73
     4
 40
60.0
 49
37.5
 49
-7.5
 49
7.5
 49
-7.5
  0
LTYPE
  2
dashed
 70
   64
  3
-------   -------------   ------
 72
   65
 73
    2
 40
7.5
 49
6
 49
-1.5
  0
LTYPE
  2
dashed_spaced
 70
   64
  3
----        --------        ----
 72
   65
 73
    2
 40
12
 49
6
 49
-6
  0
LTYPE
  2
long_dashed_dotted
 70
   64
  3
------------- --- --------------
 72
   65
 73
    4
 40
15.25
 49
12
 49
-1.5
 49
0.25
 49
-1.5
  0
LTYPE
  2
long_dashed_double-dotted
 70
   64
  3
----------- --- --- ------------
 72
   65
 73
    6
 40
17
 49
12
 49
-1.5
 49
0.25
 49
-1.5
 49
0.25
 49
-1.5
  0
LTYPE
  2
long_dashed_triplicate-dotted
 70
   64
  3
--------- --- --- --- ----------
 72
   65
 73
    8
 40
18.75
 49
12
 49
-1.5
 49
0.25
 49
-1.5
 49
0.25
 49
-1.5
 49
0.25
 49
-1.5
  0
LTYPE
  2
dotted
 70
   64
  3
   -       -       -       -    
 72
   65
 73
    2
 40
1.75
 49
0.25
 49
-1.5
  0
LTYPE
  2
chain
 70
   64
  3
-------------- -- --------------
 72
   65
 73
    4
 40
18.5
 49
12
 49
-1.5
 49
3.5
 49
-1.5
  0
LTYPE
  2
chain_double_dash
 70
   64
  3
------------ -- -- -------------
 72
   65
 73
    6
 40
23.5
 49
12
 49
-1.5
 49
3.5
 49
-1.5
 49
3.5
 49
-1.5
  0
LTYPE
  2
dashed_dotted
 70
   64
  3
-----------     -     ----------
 72
   65
 73
    4
 40
9.25
 49
6
 49
-1.5
 49
0.25
 49
-1.5
  0
LTYPE
  2
double-dashed_dotted
 70
   64
  3
------   -----------   -   -----
 72
   65
 73
    6
 40
16.75
 49
6
 49
-1.5
 49
6
 49
-1.5
 49
0.25
 49
-1.5
  0
LTYPE
  2
dashed_double-dotted
 70
   64
  3
---------    -    -    ---------
 72
   65
 73
    6
 40
11
 49
6
 49
-1.5
 49
0.25
 49
-1.5
 49
0.25
 49
-1.5
  0
LTYPE
  2
double-dashed_double-dotted
 70
   64
  3
-----   ---------   -   -   ----
 72
   65
 73
    8
 40
18.5
 49
6
 49
-1.5
 49
6
 49
-1.5
 49
0.25
 49
-1.5
 49
0.25
 49
-1.5
  0
LTYPE
  2
dashed_triplicate-dotted
 70
   64
  3
-------    -    -    -    ------
 72
   65
 73
    8
 40
12.75
 49
6
 49
-1.5
 49
0.25
 49
-1.5
 49
0.25
 49
-1.5
 49
0.25
 49
-1.5
  0
LTYPE
  2
double-dashed_triplicate-dotted
 70
   64
  3
-----  ---------  -  -  -  -----
 72
   65
 73
   10
 40
20.25
 49
6
 49
-1.5
 49
6
 49
-1.5
 49
0.25
 49
-1.5
 49
0.25
 49
-1.5
 49
0.25
 49
-1.5
  0
LTYPE
  2
undefined
 70
   64
  3
--------------------------------
 72
   65
 73
    0
 40
0
  0
ENDTAB
  0
TABLE
  2
STYLE
  5
3
100
AcDbSymbolTable
 70
     1
  0
STYLE
  5
10
100
AcDbSymbolTableRecord
100
AcDbTextStyleTableRecord
  2
STANDARD
 70
     0
 40
0.0
 41
1.0
 50
0.0
 71
     0
 42
0.2
  3
txt
  4
bigfont.shx
  0
STYLE
  5
26
100
AcDbSymbolTableRecord
100
AcDbTextStyleTableRecord
  2
TATEGAKI
 70
    68
 40
0.0
 41
1.0
 50
0.0
 71
     0
 42
1.0
  3
txt
  4
bigfont.shx
  0
ENDTAB
  0
TABLE
  2
LAYER
 70
    2
  0
LAYER
  2
_0-0_
 70
   64
 62
    7
  6
CONTINUOUS
  0
LAYER
  2
ADD_LINE
 70
   64
 62
    7
  6
CONTINUOUS
  0
ENDTAB
  0
ENDSEC
  0
SECTION
  2
BLOCKS
  0
ENDSEC
  0
SECTION
  2
ENTITIES
  0
LINE
  8
_0-0_
  6
CONTINUOUS
 62
    7
 10
672.13606690525205
 20
1633.3565543671134
 11
672.13606690525205
 21
167.53106997205509
  0
LINE
  8
_0-0_
  6
CONTINUOUS
 62
    2
 10
1376.3499830577457
 20
1118.3004325817603
 11
1377.8877539518162
 21
1119.838203475832
  0
LINE
  8
_0-0_
  6
CONTINUOUS
 62
    2
 10
1374.7884859574333
 20
1118.7188344687725
 11
1377.0359802294479
 21
1120.9663287407866
  0
LINE
  8
_0-0_
  6
CONTINUOUS
 62
    2
 10
1373.2269888571227
 20
1119.1372363557841
 11
1376.2756400259295
 21
1122.1858875245891
  0
LINE
  8
_0-0_
  6
CONTINUOUS
 62
    7
 10
1150.7843722939106
 20
1106.2217461596574
 11
1150.7843722939106
 21
700.86334575368392
  0
LINE
  8
_0-0_
  6
CONTINUOUS
 62
    7
 10
672.13606690525205
 20
567.53106997205532
 11
1706.8525777203686
 21
567.53106997205532
  0
LINE
  8
_0-0_
  6
CONTINUOUS
 62
    7
 10
672.13606690525205
 20
167.53106997205509
 11
1706.8525777203686
 21
167.53106997205509
  0
LINE
  8
_0-0_
  6
CONTINUOUS
 62
    7
 10
672.13606690525205
 20
627.53106997205532
 11
1706.8525777203686
 21
627.53106997205532
  0
LINE
  8
_0-0_
  6
CONTINUOUS
 62
    7
 10
1189.4943223128103
 20
627.53106997205532
 11
1189.4943223128103
 21
167.53106997205509
  0
LINE
  8
_0-0_
  6
CONTINUOUS
 62
    7
 10
1706.8525777203686
 20
1633.3565543671134
 11
1706.8525777203686
 21
167.53106997205509
  0
TEXT
  8
_0-0_
 62
    7
 10
906.73245032900388
 20
575.67973412101173
 40
40
 41
1
 50
0
  1
Ａ
  0
TEXT
  8
_0-0_
 62
    7
 10
1429.6891920142116
 20
576.02721287347731
 40
40
 41
1
 50
0
  1
Ｂ
  0
LINE
  8
_0-0_
  6
CONTINUOUS
 62
    7
 10
1497.895766268437
 20
1351.4764552103743
 11
1505.1896791582585
 21
1343.9233873068188
  0
LINE
  8
_0-0_
  6
CONTINUOUS
 62
    7
 10
1463.1896791582549
 20
1246.2217461596565
 11
1459.6896791582585
 21
1256.7217461596574
  0
LINE
  8
_0-0_
  6
CONTINUOUS
 62
    7
 10
1459.6896791582585
 20
1256.7217461596574
 11
1449.1896791582585
 21
1256.7217461596574
  0
LINE
  8
_0-0_
  6
CONTINUOUS
 62
    7
 10
1449.1896791582585
 20
1256.7217461596574
 11
1449.1896791582585
 21
1246.2217461596565
  0
LINE
  8
_0-0_
  6
CONTINUOUS
 62
    7
 10
1505.1896791582585
 20
1343.9233873068188
 11
1497.895766268437
 21
1351.4764552103743
  0
LINE
  8
_0-0_
  6
CONTINUOUS
 62
    7
 10
1087.7843722939106
 20
1246.2217461596565
 11
1449.1896791582585
 21
1246.2217461596565
  0
LINE
  8
_0-0_
  6
CONTINUOUS
 62
    7
 10
996.63744019746457
 20
1368.9807816709181
 11
1497.895766268437
 21
1351.4764552103743
  0
LINE
  8
_0-0_
  6
CONTINUOUS
 62
    7
 10
996.63744019746457
 20
1368.9807816709181
 11
989.08437229390995
 21
1361.6868687810984
  0
LINE
  8
_0-0_
  6
CONTINUOUS
 62
    7
 10
1505.1896791582585
 20
1253.6463673621156
 11
1505.1896791582585
 21
1343.9233873068188
  0
LINE
  8
_0-0_
  6
CONTINUOUS
 62
    7
 10
1497.7650579557994
 20
1246.2217461596565
 11
1463.1896791582549
 21
1246.2217461596565
  0
LINE
  8
_0-0_
  6
CONTINUOUS
 62
    7
 10
1505.1896791582585
 20
1253.6463673621156
 11
1497.7650579557994
 21
1246.2217461596565
  0
LINE
  8
_0-0_
  6
CONTINUOUS
 62
  136
 10
1322.2843722939106
 20
1212.621746159658
 11
1326.4843722939113
 21
1212.621746159658
  0
LINE
  8
_0-0_
  6
CONTINUOUS
 62
  136
 10
1322.2843722939106
 20
1198.621746159658
 11
1322.2843722939106
 21
1212.621746159658
  0
LINE
  8
_0-0_
  6
CONTINUOUS
 62
  136
 10
1326.4843722939113
 20
1198.621746159658
 11
1326.4843722939113
 21
1212.621746159658
  0
LINE
  8
_0-0_
  6
CONTINUOUS
 62
  136
 10
1269.7843722939106
 20
1198.621746159658
 11
1322.2843722939106
 21
1198.621746159658
  0
LINE
  8
_0-0_
  6
CONTINUOUS
 62
  136
 10
1269.7843722939106
 20
1125.8217461596569
 11
1322.2843722939106
 21
1125.8217461596569
  0
LINE
  8
_0-0_
  6
CONTINUOUS
 62
  136
 10
1322.2843722939106
 20
1125.8217461596569
 11
1322.2843722939106
 21
1111.8217461596569
  0
LINE
  8
_0-0_
  6
CONTINUOUS
 62
  136
 10
1322.2843722939106
 20
1111.8217461596569
 11
1326.4843722939113
 21
1111.8217461596569
  0
LINE
  8
_0-0_
  6
CONTINUOUS
 62
  136
 10
1326.4843722939113
 20
1125.8217461596569
 11
1326.4843722939113
 21
1111.8217461596569
  0
LINE
  8
_0-0_
  6
CONTINUOUS
 62
    7
 10
1357.9843722939113
 20
1194.4217461596581
 11
1368.4843722939113
 21
1190.2217461596574
  0
LINE
  8
_0-0_
  6
CONTINUOUS
 62
    7
 10
1368.4843722939113
 20
1194.4217461596581
 11
1357.9843722939113
 21
1190.2217461596574
  0
LINE
  8
_0-0_
  6
CONTINUOUS
 62
    7
 10
1357.9843722939113
 20
1134.2217461596574
 11
1368.4843722939113
 21
1130.0217461596567
  0
LINE
  8
_0-0_
  6
CONTINUOUS
 62
    7
 10
1368.4843722939113
 20
1134.2217461596574
 11
1357.9843722939113
 21
1130.0217461596567
  0
LINE
  8
_0-0_
  6
CONTINUOUS
 62
    7
 10
1357.9843722939113
 20
1134.2217461596574
 11
1357.9843722939113
 21
1130.0217461596567
  0
LINE
  8
_0-0_
  6
CONTINUOUS
 62
    7
 10
1368.4843722939113
 20
1134.2217461596574
 11
1368.4843722939113
 21
1130.0217461596567
  0
LINE
  8
_0-0_
  6
CONTINUOUS
 62
    7
 10
1368.4843722939113
 20
1194.4217461596581
 11
1368.4843722939113
 21
1190.2217461596574
  0
LINE
  8
_0-0_
  6
CONTINUOUS
 62
    7
 10
1357.9843722939113
 20
1194.4217461596581
 11
1357.9843722939113
 21
1190.2217461596574
  0
LINE
  8
_0-0_
  6
CONTINUOUS
 62
    2
 10
1370.2522057497408
 20
1130.0217461596594
 11
1374.4522057497416
 21
1134.2217461596574
  0
LINE
  8
_0-0_
  6
CONTINUOUS
 62
    2
 10
1368.4843722939113
 20
1130.2338116911515
 11
1372.4723067624182
 21
1134.2217461596574
  0
LINE
  8
_0-0_
  6
CONTINUOUS
 62
    2
 10
1368.4843722939113
 20
1132.213710678473
 11
1370.4924077750948
 21
1134.2217461596574
  0
LINE
  8
_0-0_
  6
CONTINUOUS
 62
    2
 10
1368.4843722939113
 20
1134.1936096657955
 11
1368.512508787775
 21
1134.2217461596574
  0
LINE
  8
_0-0_
  6
CONTINUOUS
 62
    2
 10
1369.075337142749
 20
1190.2217461596592
 11
1373.2753371427498
 21
1194.4217461596581
  0
LINE
  8
_0-0_
  6
CONTINUOUS
 62
    2
 10
1368.4843722939113
 20
1191.6106802981421
 11
1371.2954381554264
 21
1194.4217461596563
  0
LINE
  8
_0-0_
  6
CONTINUOUS
 62
    2
 10
1368.4843722939113
 20
1193.5905792854655
 11
1369.315539168103
 21
1194.4217461596563
  0
LINE
  8
_0-0_
  6
CONTINUOUS
 62
    7
 10
1364.2843722939106
 20
1115.3217461596569
 11
1364.2843722939106
 21
1125.8217461596569
  0
LINE
  8
_0-0_
  6
CONTINUOUS
 62
    7
 10
1364.2843722939106
 20
1115.3217461596569
 11
1374.7843722939106
 21
1112.5082796391307
  0
LINE
  8
_0-0_
  6
CONTINUOUS
 62
  136
 10
1269.7843722939106
 20
1198.621746159658
 11
1269.7843722939106
 21
1194.4217461596581
  0
LINE
  8
_0-0_
  6
CONTINUOUS
 62
  136
 10
1269.7843722939106
 20
1130.0217461596567
 11
1269.7843722939106
 21
1125.8217461596569
  0
LINE
  8
_0-0_
  6
CONTINUOUS
 62
    2
 10
1364.2843722939106
 20
1122.0740137165049
 11
1368.0321047370635
 21
1125.821746159656
  0
LINE
  8
_0-0_
  6
CONTINUOUS
 62
    2
 10
1364.2843722939142
 20
1124.0539127038301
 11
1366.0522057497437
 21
1125.8217461596587
  0
LINE
  8
_0-0_
  6
CONTINUOUS
 62
    7
 10
1364.2843722939106
 20
1235.7217461596565
 11
1364.2843722939106
 21
1246.2217461596565
  0
LINE
  8
_0-0_
  6
CONTINUOUS
 62
    7
 10
1364.2843722939106
 20
1235.7217461596565
 11
1374.7843722939106
 21
1232.9082796391294
  0
LINE
  8
_0-0_
  6
CONTINUOUS
 62
  136
 10
1374.7843722939106
 20
1130.0217461596567
 11
1374.7843722939106
 21
1125.8217461596569
  0
LINE
  8
_0-0_
  6
CONTINUOUS
 62
  136
 10
1374.7843722939106
 20
1198.621746159658
 11
1374.7843722939106
 21
1194.4217461596581
  0
LINE
  8
_0-0_
  6
CONTINUOUS
 62
  136
 10
1326.4843722939113
 20
1198.621746159658
 11
1374.7843722939106
 21
1198.621746159658
  0
LINE
  8
_0-0_
  6
CONTINUOUS
 62
  136
 10
1269.7843722939106
 20
1194.4217461596581
 11
1374.7843722939106
 21
1194.4217461596581
  0
LINE
  8
_0-0_
  6
CONTINUOUS
 62
  136
 10
1269.7843722939106
 20
1130.0217461596567
 11
1374.7843722939106
 21
1130.0217461596567
  0
LINE
  8
_0-0_
  6
CONTINUOUS
 62
  136
 10
1326.4843722939113
 20
1125.8217461596569
 11
1374.7843722939106
 21
1125.8217461596569
  0
ARC
  8
_0-0_
  6
CONTINUOUS
 62
    2
 10
1387.1289294274357
 20
1132.1217461596571
 40
12.521904440733111
 50
170.34552531892481
 51
189.65447468107519
  0
LINE
  8
_0-0_
  6
CONTINUOUS
 62
    2
 10
1372.2321047370642
 20
1130.0217461596567
 11
1374.6101114688609
 21
1132.3997528914551
  0
LINE
  8
_0-0_
  6
CONTINUOUS
 62
    2
 10
1374.212003724384
 20
1130.0217461596567
 11
1374.7099334296327
 21
1130.5196758649026
  0
ARC
  8
_0-0_
  6
CONTINUOUS
 62
    2
 10
1384.7671180513389
 20
1192.3217461596578
 40
10.201235849513667
 50
168.12030433418508
 51
191.87969566581492
  0
LINE
  8
_0-0_
  6
CONTINUOUS
 62
    2
 10
1373.0351351173922
 20
1190.2217461596556
 11
1374.5809466415012
 21
1191.7675576837637
  0
LINE
  8
_0-0_
  6
CONTINUOUS
 62
    2
 10
1371.0552361300688
 20
1190.2217461596556
 11
1374.6805631171774
 21
1193.8470731467651
  0
LINE
  8
_0-0_
  6
CONTINUOUS
 62
    7
 10
1364.2843722939106
 20
1209.121746159658
 11
1364.2843722939106
 21
1198.621746159658
  0
LINE
  8
_0-0_
  6
CONTINUOUS
 62
    7
 10
1364.2843722939106
 20
1209.121746159658
 11
1374.7843722939106
 21
1211.9352126801841
  0
LINE
  8
_0-0_
  6
CONTINUOUS
 62
    2
 10
1364.2843722939106
 20
1242.8478519431674
 11
1367.6582665103997
 21
1246.2217461596574
  0
LINE
  8
_0-0_
  6
CONTINUOUS
 62
    2
 10
1364.2843722939106
 20
1244.8277509304908
 11
1365.6783675230799
 21
1246.2217461596574
  0
LINE
  8
_0-0_
  6
CONTINUOUS
 62
    7
 10
1374.7843722939106
 20
1232.9082796391294
 11
1374.7843722939106
 21
1211.9352126801841
  0
CIRCLE
  8
_0-0_
  6
DASHED2
 62
    1
 10
1350.9106371874441
 20
1161.6510549350451
 40
67.350194333739935
  0
TEXT
  8
_0-0_
 62
    7
 10
1329.720462786765
 20
1218.0037741454535
 40
24
 41
1
 50
0
  1
Ａ
  0
LINE
  8
_0-0_
  6
CONTINUOUS
 62
  136
 10
1269.7843722939106
 20
1198.621746159658
 11
1269.7843722939106
 21
1194.4217461596581
  0
LINE
  8
_0-0_
  6
CONTINUOUS
 62
  136
 10
1269.7843722939106
 20
1130.0217461596567
 11
1269.7843722939106
 21
1125.8217461596569
  0
LINE
  8
_0-0_
  6
CONTINUOUS
 62
    7
 10
1514.7843722939106
 20
804.10069188254238
 11
1514.7843722939106
 21
734.10069188254238
  0
LINE
  8
_0-0_
  6
CONTINUOUS
 62
    7
 10
1513.7531429877054
 20
732.17009188254087
 11
1514.7843722939142
 21
733.20132118874881
  0
LINE
  8
_0-0_
  6
CONTINUOUS
 62
    7
 10
1374.7843722939106
 20
930.10069188254238
 11
1584.7843722939106
 21
930.10069188254238
  0
LINE
  8
_0-0_
  6
CONTINUOUS
 62
    7
 10
1514.7843722939106
 20
804.10069188254238
 11
1584.7843722939106
 21
804.10069188254238
  0
LINE
  8
_0-0_
  6
CONTINUOUS
 62
    7
 10
989.08437229390995
 20
930.10069188254238
 11
772.78437229391068
 21
930.10069188254238
  0
LINE
  8
_0-0_
  6
CONTINUOUS
 62
    7
 10
1079.4484222181381
 20
732.17009188254178
 11
1087.7843722939106
 21
740.50604195831511
  0
LINE
  8
_0-0_
  6
CONTINUOUS
 62
    7
 10
1084.398169686443
 20
732.17009188254269
 11
1087.7843722939106
 21
735.55629449001026
  0
CIRCLE
  8
_0-0_
  6
DASHED2
 62
    1
 10
1413.1764300594004
 20
929.81134312414451
 40
67.350194333739935
  0
TEXT
  8
_0-0_
 62
    7
 10
1400.884684700246
 20
985.12323139649379
 40
24
 41
1
 50
0
  1
Ｂ
  0
LINE
  8
_0-0_
  6
CONTINUOUS
 62
    7
 10
989.08437229390995
 20
1361.6868687810984
 11
989.08437229390995
 21
930.10069188254238
  0
LINE
  8
_0-0_
  6
CONTINUOUS
 62
    7
 10
1087.7843722939106
 20
732.17009188254178
 11
1087.7843722939106
 21
1246.2217461596565
  0
LINE
  8
_0-0_
  6
CONTINUOUS
 62
    7
 10
1269.7843722939106
 20
1194.4217461596581
 11
1269.7843722939106
 21
1246.2217461596565
  0
LINE
  8
_0-0_
  6
CONTINUOUS
 62
    7
 10
1269.7843722939106
 20
734.10069188254238
 11
1269.7843722939106
 21
1130.0217461596567
  0
LINE
  8
_0-0_
  6
CONTINUOUS
 62
    7
 10
842.78437229391068
 20
802.17009188254178
 11
842.78437229391068
 21
732.17009188254178
  0
LINE
  8
_0-0_
  6
CONTINUOUS
 62
    7
 10
1440.3785802167149
 20
732.17009188254087
 11
1584.7843722939106
 21
876.57588395973835
  0
LINE
  8
_0-0_
  6
CONTINUOUS
 62
    7
 10
1433.3075124048482
 20
732.17009188254178
 11
1584.7843722939106
 21
883.64695177160411
  0
LINE
  8
_0-0_
  6
CONTINUOUS
 62
    7
 10
1426.2364445929816
 20
732.17009188254269
 11
1584.7843722939106
 21
890.71801958346896
  0
LINE
  8
_0-0_
  6
CONTINUOUS
 62
    7
 10
1269.7843722939106
 20
787.85005393943356
 11
1412.0350102370212
 21
930.10069188254329
  0
LINE
  8
_0-0_
  6
CONTINUOUS
 62
    7
 10
1269.7843722939124
 20
794.92112175130114
 11
1404.9639424251509
 21
930.10069188254147
  0
LINE
  8
_0-0_
  6
CONTINUOUS
 62
    7
 10
1269.7843722939106
 20
801.99218956316599
 11
1397.8928746132879
 21
930.10069188254238
  0
LINE
  8
_0-0_
  6
CONTINUOUS
 62
    7
 10
987.83024025732277
 20
732.17009188254178
 11
1087.7843722939106
 21
832.12422391912969
  0
LINE
  8
_0-0_
  6
CONTINUOUS
 62
    7
 10
1269.7843722939106
 20
1014.1242239191297
 11
1369.5665415484109
 21
1113.90639317363
  0
LINE
  8
_0-0_
  6
CONTINUOUS
 62
    7
 10
980.75917244545792
 20
732.17009188254178
 11
1087.7843722939087
 21
839.19529173099363
  0
LINE
  8
_0-0_
  6
CONTINUOUS
 62
    7
 10
1269.7843722939106
 20
1021.1952917309955
 11
1364.2843722939106
 21
1115.6952917309964
  0
LINE
  8
_0-0_
  6
CONTINUOUS
 62
    7
 10
1494.8108267225725
 20
1246.2217461596574
 11
1505.1896791582585
 21
1256.6005985953425
  0
LINE
  8
_0-0_
  6
CONTINUOUS
 62
    7
 10
973.68810463359125
 20
732.17009188254087
 11
1087.7843722939106
 21
846.26635954285848
  0
LINE
  8
_0-0_
  6
CONTINUOUS
 62
    7
 10
1269.7843722939106
 20
1028.2663595428603
 11
1364.2843722939106
 21
1122.7663595428612
  0
LINE
  8
_0-0_
  6
CONTINUOUS
 62
    7
 10
1487.7397589107059
 20
1246.2217461596556
 11
1505.1896791582585
 21
1263.6716664072064
  0
LINE
  8
_0-0_
  6
CONTINUOUS
 62
    7
 10
831.55607027762755
 20
802.17009188254087
 11
959.48667027762724
 21
930.10069188254238
  0
LINE
  8
_0-0_
  6
CONTINUOUS
 62
    7
 10
989.08437229390813
 20
959.69839389882145
 11
1087.7843722939106
 21
1058.3983938988231
  0
LINE
  8
_0-0_
  6
CONTINUOUS
 62
    7
 10
1269.7843722939106
 20
1240.3983938988249
 11
1384.8114257923517
 21
1355.4254473972642
  0
LINE
  8
_0-0_
  6
CONTINUOUS
 62
    7
 10
824.48500246576089
 20
802.17009188253996
 11
952.41560246576057
 21
930.10069188254147
  0
LINE
  8
_0-0_
  6
CONTINUOUS
 62
    7
 10
989.08437229390813
 20
966.76946171068812
 11
1087.7843722939087
 21
1065.4694617106888
  0
LINE
  8
_0-0_
  6
CONTINUOUS
 62
    7
 10
1268.5366567428773
 20
1246.2217461596574
 11
1377.9789531815841
 21
1355.6640425983651
  0
LINE
  8
_0-0_
  6
CONTINUOUS
 62
    7
 10
817.41393465389785
 20
802.17009188254178
 11
945.34453465389754
 21
930.10069188254238
  0
LINE
  8
_0-0_
  6
CONTINUOUS
 62
    7
 10
989.08437229390995
 20
973.84052952255388
 11
1087.7843722939106
 21
1072.5405295225537
  0
LINE
  8
_0-0_
  6
CONTINUOUS
 62
    7
 10
1261.4655889310125
 20
1246.2217461596574
 11
1371.1464805708201
 21
1355.9026377994642
  0
LINE
  8
_0-0_
  6
CONTINUOUS
 62
    7
 10
989.08437229390995
 20
1185.9725638785185
 11
1166.1723022478327
 21
1363.0604938324423
  0
LINE
  8
_0-0_
  6
CONTINUOUS
 62
    7
 10
989.08437229390995
 20
1193.0436316903833
 11
1159.3398296370651
 21
1363.2990890335413
  0
LINE
  8
_0-0_
  6
CONTINUOUS
 62
    7
 10
989.08437229390995
 20
1200.1146995022491
 11
1152.5073570263012
 21
1363.5376842346413
  0
LINE
  8
_0-0_
  6
CONTINUOUS
 62
    7
 10
889.41397963401334
 20
938.23077615146531
 11
840.51847913733593
 21
1022.9202672732199
  0
POINT
  8
_0-0_
 62
    7
 10
889.41397963401334
 20
938.23077615146531
  0
TEXT
  8
_0-0_
 62
    7
 10
746.43390593983179
 20
1009.7208129985556
 40
30
 41
1
 50
0
  1
防水層
  0
LINE
  8
_0-0_
  6
CONTINUOUS
 62
    7
 10
772.78437229391068
 20
802.17009188254178
 11
842.78437229391068
 21
802.17009188254178
  0
LINE
  8
_0-0_
  6
CONTINUOUS
 62
    7
 10
1206.7843722939106
 20
1106.2217461596574
 11
1206.7843722939106
 21
700.86341575368306
  0
LINE
  8
_0-0_
  6
CONTINUOUS
 62
    7
 10
1143.7843722939106
 20
1106.2217461596574
 11
1213.7843722939106
 21
1106.2217461596574
  0
LINE
  8
_0-0_
  6
CONTINUOUS
 62
    7
 10
1234.7843722939106
 20
1197.2217461596574
 11
1234.7843722939106
 21
1127.2217461596574
  0
LINE
  8
_0-0_
  6
CONTINUOUS
 62
    7
 10
1206.7843722939106
 20
700.86341575368306
 11
1205.6039132939113
 21
699.1111197536834
  0
LINE
  8
_0-0_
  6
CONTINUOUS
 62
    7
 10
1204.2059432939095
 20
697.52805575368302
 11
1202.6141502939099
 21
696.14027075368313
  0
LINE
  8
_0-0_
  6
CONTINUOUS
 62
    7
 10
1200.8556172939097
 20
694.97145975368358
 11
1198.9598002939092
 21
694.04118775368306
  0
LINE
  8
_0-0_
  6
CONTINUOUS
 62
    7
 10
1196.9591022939094
 20
693.3653797536831
 11
1194.8877392939103
 21
692.95552275368345
  0
LINE
  8
_0-0_
  6
CONTINUOUS
 62
    7
 10
1192.7883272939107
 20
692.81845575368288
 11
1190.6809982939121
 21
692.95552275368345
  0
LINE
  8
_0-0_
  6
CONTINUOUS
 62
    7
 10
1188.6096352939094
 20
693.3653797536831
 11
1186.6089372939095
 21
694.04118775368306
  0
LINE
  8
_0-0_
  6
CONTINUOUS
 62
    7
 10
1184.7131202939127
 20
694.97145975368358
 11
1182.9545872939125
 21
696.14027075368313
  0
LINE
  8
_0-0_
  6
CONTINUOUS
 62
    7
 10
1181.3627942939092
 20
697.52805575368302
 11
1179.9648242939111
 21
699.1111197536834
  0
LINE
  8
_0-0_
  6
CONTINUOUS
 62
    7
 10
1178.7843722939106
 20
700.86341575368306
 11
1177.6039132939113
 21
702.61563475368303
  0
LINE
  8
_0-0_
  6
CONTINUOUS
 62
    7
 10
1176.2059432939095
 20
704.1986987536834
 11
1174.6141502939099
 21
705.5864837536833
  0
LINE
  8
_0-0_
  6
CONTINUOUS
 62
    7
 10
1172.8556172939097
 20
706.75529475368285
 11
1170.9598002939092
 21
707.68556675368336
  0
LINE
  8
_0-0_
  6
CONTINUOUS
 62
    7
 10
1168.9591022939094
 20
708.36137475368332
 11
1166.8877392939103
 21
708.77123175368297
  0
LINE
  8
_0-0_
  6
CONTINUOUS
 62
    7
 10
1164.7804102939117
 20
708.90829875368354
 11
1162.6809982939085
 21
708.77123175368297
  0
LINE
  8
_0-0_
  6
CONTINUOUS
 62
    7
 10
1160.6096352939094
 20
708.36137475368332
 11
1158.6089372939095
 21
707.68556675368336
  0
LINE
  8
_0-0_
  6
CONTINUOUS
 62
    7
 10
1156.7131202939127
 20
706.75529475368285
 11
1154.9545872939125
 21
705.5864837536833
  0
LINE
  8
_0-0_
  6
CONTINUOUS
 62
    7
 10
1153.3627942939092
 20
704.1986987536834
 11
1151.9648242939111
 21
702.61563475368303
  0
LINE
  8
_0-0_
  6
CONTINUOUS
 62
    7
 10
1178.7843722939106
 20
700.86341575368306
 11
1179.9648242939111
 21
699.1111197536834
  0
LINE
  8
_0-0_
  6
CONTINUOUS
 62
    7
 10
1181.3627942939092
 20
697.52805575368302
 11
1182.9545872939125
 21
696.14027075368313
  0
LINE
  8
_0-0_
  6
CONTINUOUS
 62
    7
 10
1184.7131202939127
 20
694.97145975368358
 11
1186.6089372939095
 21
694.04118775368306
  0
LINE
  8
_0-0_
  6
CONTINUOUS
 62
    7
 10
1188.6096352939094
 20
693.3653797536831
 11
1190.6809982939121
 21
692.95552275368345
  0
LINE
  8
_0-0_
  6
CONTINUOUS
 62
    7
 10
1192.7883272939107
 20
692.81845575368288
 11
1194.8877392939103
 21
692.95552275368345
  0
LINE
  8
_0-0_
  6
CONTINUOUS
 62
    7
 10
1196.9591022939094
 20
693.3653797536831
 11
1198.9598002939092
 21
694.04118775368306
  0
LINE
  8
_0-0_
  6
CONTINUOUS
 62
    7
 10
1200.8556172939097
 20
694.97145975368358
 11
1202.6141502939099
 21
696.14027075368313
  0
LINE
  8
_0-0_
  6
CONTINUOUS
 62
    7
 10
1204.2059432939095
 20
697.52805575368302
 11
1205.6039132939113
 21
699.1111197536834
  0
LINE
  8
_0-0_
  6
CONTINUOUS
 62
    7
 10
1150.7843722939106
 20
700.86334575368392
 11
1151.9648242939111
 21
702.61563475368303
  0
LINE
  8
_0-0_
  6
CONTINUOUS
 62
    7
 10
1153.3627942939092
 20
704.1986987536834
 11
1154.9545872939125
 21
705.5864837536833
  0
LINE
  8
_0-0_
  6
CONTINUOUS
 62
    7
 10
1156.7131202939127
 20
706.75529475368285
 11
1158.6089372939095
 21
707.68556675368336
  0
LINE
  8
_0-0_
  6
CONTINUOUS
 62
    7
 10
1160.6096352939094
 20
708.36137475368332
 11
1162.6809982939085
 21
708.77123175368297
  0
LINE
  8
_0-0_
  6
CONTINUOUS
 62
    7
 10
1164.7804102939117
 20
708.90829875368354
 11
1166.8877392939103
 21
708.77123175368297
  0
LINE
  8
_0-0_
  6
CONTINUOUS
 62
    7
 10
1168.9591022939094
 20
708.36137475368332
 11
1170.9598002939092
 21
707.68556675368336
  0
LINE
  8
_0-0_
  6
CONTINUOUS
 62
    7
 10
1172.8556172939097
 20
706.75529475368285
 11
1174.6141502939099
 21
705.5864837536833
  0
LINE
  8
_0-0_
  6
CONTINUOUS
 62
    7
 10
1176.2059432939095
 20
704.1986987536834
 11
1177.6039132939113
 21
702.61563475368303
  0
LINE
  8
_0-0_
  6
CONTINUOUS
 62
    7
 10
1178.7843722939106
 20
700.86341575368306
 11
1177.6039132939113
 21
699.1111197536834
  0
LINE
  8
_0-0_
  6
CONTINUOUS
 62
    7
 10
1176.2059432939095
 20
697.52805575368302
 11
1174.6141502939099
 21
696.14027075368313
  0
LINE
  8
_0-0_
  6
CONTINUOUS
 62
    7
 10
1172.8556172939097
 20
694.97145975368358
 11
1170.9598002939092
 21
694.04118775368306
  0
LINE
  8
_0-0_
  6
CONTINUOUS
 62
    7
 10
1168.9591022939094
 20
693.3653797536831
 11
1166.8877392939103
 21
692.95552275368345
  0
LINE
  8
_0-0_
  6
CONTINUOUS
 62
    7
 10
1164.7883272939107
 20
692.81845575368288
 11
1162.6809982939085
 21
692.95552275368345
  0
LINE
  8
_0-0_
  6
CONTINUOUS
 62
    7
 10
1160.6096352939094
 20
693.3653797536831
 11
1158.6089372939095
 21
694.04118775368306
  0
LINE
  8
_0-0_
  6
CONTINUOUS
 62
    7
 10
1156.7131202939127
 20
694.97145975368358
 11
1154.9545872939125
 21
696.14027075368313
  0
LINE
  8
_0-0_
  6
CONTINUOUS
 62
    7
 10
1153.3627942939092
 20
697.52805575368302
 11
1151.9648242939111
 21
699.1111197536834
  0
LINE
  8
_0-0_
  6
CONTINUOUS
 62
    7
 10
1150.7843722939106
 20
700.86341575368306
 11
1150.7841570239761
 21
700.86341901643891
  0
LINE
  8
_0-0_
  6
CONTINUOUS
 62
    7
 10
1150.7843722939106
 20
700.86341575368306
 11
1151.9648242939111
 21
699.1111197536834
  0
LINE
  8
_0-0_
  6
CONTINUOUS
 62
    7
 10
1177.6039132939113
 20
699.1111197536834
 11
1176.2059432939095
 21
697.52805575368302
  0
LINE
  8
_0-0_
  6
CONTINUOUS
 62
    7
 10
1174.6141502939099
 20
696.14027075368313
 11
1172.8556172939097
 21
694.97145975368358
  0
LINE
  8
_0-0_
  6
CONTINUOUS
 62
    7
 10
1170.9598002939092
 20
694.04118775368306
 11
1168.9591022939094
 21
693.3653797536831
  0
LINE
  8
_0-0_
  6
CONTINUOUS
 62
    7
 10
1166.8877392939103
 20
692.95552275368345
 11
1164.7883272939107
 21
692.81845575368288
  0
LINE
  8
_0-0_
  6
CONTINUOUS
 62
    7
 10
1162.6809982939085
 20
692.95552275368345
 11
1160.6096352939094
 21
693.3653797536831
  0
LINE
  8
_0-0_
  6
CONTINUOUS
 62
    7
 10
1158.6089372939095
 20
694.04118775368306
 11
1156.7131202939127
 21
694.97145975368358
  0
LINE
  8
_0-0_
  6
CONTINUOUS
 62
    7
 10
1154.9545872939125
 20
696.14027075368313
 11
1153.3627942939092
 21
697.52805575368302
  0
LINE
  8
_0-0_
  6
CONTINUOUS
 62
    7
 10
1234.7843722939106
 20
1197.2217461596574
 11
1206.7843722939106
 21
1197.2217461596574
  0
LINE
  8
_0-0_
  6
CONTINUOUS
 62
    7
 10
1143.7843722939106
 20
1134.2217461596574
 11
1143.7843722939106
 21
1106.2217461596574
  0
ARC
  8
_0-0_
  6
CONTINUOUS
 62
    7
 10
1206.7843722939106
 20
1134.2217461596574
 40
63
 50
90
 51
180
  0
ARC
  8
_0-0_
  6
CONTINUOUS
 62
    7
 10
1234.5966946156714
 20
1106.2217461596574
 40
21.000838623990937
 50
89.487959400031784
 51
180
  0
LINE
  8
_0-0_
  6
CONTINUOUS
 62
    7
 10
1374.7843722939106
 20
1112.5082796391307
 11
1374.7843722939106
 21
930.10069188254238
  0
LINE
  8
_0-0_
  6
CONTINUOUS
 62
    7
 10
1234.7843722939106
 20
1190.2217461596574
 11
1441.3392857260842
 21
1190.2217461596574
  0
LINE
  8
_0-0_
  6
CONTINUOUS
 62
    7
 10
1449.1896791582585
 20
1256.7217461596574
 11
1459.6896791582585
 21
1256.7217461596574
  0
LINE
  8
_0-0_
  6
CONTINUOUS
 62
    7
 10
1459.6896791582585
 20
1256.7217461596574
 11
1463.1896791582549
 21
1246.2217461596565
  0
LINE
  8
_0-0_
  6
CONTINUOUS
 62
    7
 10
1441.3394257260843
 20
1134.2217461596574
 11
1439.5902587260862
 21
1135.3997761596565
  0
LINE
  8
_0-0_
  6
CONTINUOUS
 62
    7
 10
1438.0068517260843
 20
1136.7973611596572
 11
1436.6186817260859
 21
1138.3888181596576
  0
LINE
  8
_0-0_
  6
CONTINUOUS
 62
    7
 10
1435.449436726085
 20
1140.147064159657
 11
1434.5187027260836
 21
1142.0426501596576
  0
LINE
  8
_0-0_
  6
CONTINUOUS
 62
    7
 10
1433.8424117260838
 20
1144.0431871596566
 11
1433.4320507260854
 21
1146.114452159657
  0
LINE
  8
_0-0_
  6
CONTINUOUS
 62
    7
 10
1433.294465726085
 20
1148.2217461596574
 11
1433.4320507260854
 21
1150.3290331596572
  0
LINE
  8
_0-0_
  6
CONTINUOUS
 62
    7
 10
1433.8424117260838
 20
1152.4002981596568
 11
1434.5187027260836
 21
1154.4008351596576
  0
LINE
  8
_0-0_
  6
CONTINUOUS
 62
    7
 10
1435.449436726085
 20
1156.2964211596573
 11
1436.6186817260859
 21
1158.0546671596576
  0
LINE
  8
_0-0_
  6
CONTINUOUS
 62
    7
 10
1438.0068517260843
 20
1159.6461241596571
 11
1439.5902587260862
 21
1161.0437091596568
  0
LINE
  8
_0-0_
  6
CONTINUOUS
 62
    7
 10
1441.3394257260843
 20
1162.2217461596565
 11
1443.0884457260836
 21
1163.3997761596574
  0
LINE
  8
_0-0_
  6
CONTINUOUS
 62
    7
 10
1444.6718527260855
 20
1164.7973611596572
 11
1446.0600227260838
 21
1166.3888181596567
  0
LINE
  8
_0-0_
  6
CONTINUOUS
 62
    7
 10
1447.2292677260848
 20
1168.147064159657
 11
1448.1600017260826
 21
1170.0426501596567
  0
LINE
  8
_0-0_
  6
CONTINUOUS
 62
    7
 10
1448.836292726086
 20
1172.0431871596575
 11
1449.2466537260843
 21
1174.114452159657
  0
LINE
  8
_0-0_
  6
CONTINUOUS
 62
    7
 10
1449.3842457260835
 20
1176.2217461596574
 11
1449.2466537260843
 21
1178.3290331596572
  0
LINE
  8
_0-0_
  6
CONTINUOUS
 62
    7
 10
1448.836292726086
 20
1180.4002981596568
 11
1448.1600017260826
 21
1182.4008351596576
  0
LINE
  8
_0-0_
  6
CONTINUOUS
 62
    7
 10
1447.2292677260848
 20
1184.2964211596573
 11
1446.0600227260838
 21
1186.0546671596576
  0
LINE
  8
_0-0_
  6
CONTINUOUS
 62
    7
 10
1444.6718527260855
 20
1187.6461241596571
 11
1443.0884457260836
 21
1189.0437091596568
  0
LINE
  8
_0-0_
  6
CONTINUOUS
 62
    7
 10
1441.3392857260842
 20
1190.2217461596574
 11
1443.0884457260836
 21
1189.0437091596568
  0
LINE
  8
_0-0_
  6
CONTINUOUS
 62
    7
 10
1444.6718527260855
 20
1187.6461241596571
 11
1446.0600227260838
 21
1186.0546671596576
  0
LINE
  8
_0-0_
  6
CONTINUOUS
 62
    7
 10
1447.2292677260848
 20
1184.2964211596573
 11
1448.1600017260826
 21
1182.4008351596576
  0
LINE
  8
_0-0_
  6
CONTINUOUS
 62
    7
 10
1448.836292726086
 20
1180.4002981596568
 11
1449.2466537260843
 21
1178.3290331596572
  0
LINE
  8
_0-0_
  6
CONTINUOUS
 62
    7
 10
1449.3842457260835
 20
1176.2217461596574
 11
1449.2466537260843
 21
1174.114452159657
  0
LINE
  8
_0-0_
  6
CONTINUOUS
 62
    7
 10
1448.836292726086
 20
1172.0431871596575
 11
1448.1600017260826
 21
1170.0426501596567
  0
LINE
  8
_0-0_
  6
CONTINUOUS
 62
    7
 10
1447.2292677260848
 20
1168.147064159657
 11
1446.0600227260838
 21
1166.3888181596567
  0
LINE
  8
_0-0_
  6
CONTINUOUS
 62
    7
 10
1444.6718527260855
 20
1164.7973611596572
 11
1443.0884457260836
 21
1163.3997761596574
  0
LINE
  8
_0-0_
  6
CONTINUOUS
 62
    7
 10
1441.3394257260843
 20
1162.2217461596565
 11
1439.5902587260862
 21
1161.0437091596568
  0
LINE
  8
_0-0_
  6
CONTINUOUS
 62
    7
 10
1441.3394257260843
 20
1162.2217461596565
 11
1443.0884457260836
 21
1161.0437091596568
  0
LINE
  8
_0-0_
  6
CONTINUOUS
 62
    7
 10
1444.6718527260855
 20
1159.6461241596571
 11
1446.0600227260838
 21
1158.0546671596576
  0
LINE
  8
_0-0_
  6
CONTINUOUS
 62
    7
 10
1447.2292677260848
 20
1156.2964211596573
 11
1448.1600017260826
 21
1154.4008351596576
  0
LINE
  8
_0-0_
  6
CONTINUOUS
 62
    7
 10
1438.0068517260843
 20
1159.6461241596571
 11
1436.6186817260859
 21
1158.0546671596576
  0
LINE
  8
_0-0_
  6
CONTINUOUS
 62
    7
 10
1435.449436726085
 20
1156.2964211596573
 11
1434.5187027260836
 21
1154.4008351596576
  0
LINE
  8
_0-0_
  6
CONTINUOUS
 62
    7
 10
1433.8424117260838
 20
1152.4002981596568
 11
1433.4320507260854
 21
1150.3290331596572
  0
LINE
  8
_0-0_
  6
CONTINUOUS
 62
    7
 10
1433.294465726085
 20
1148.2217461596574
 11
1433.4320507260854
 21
1146.114452159657
  0
LINE
  8
_0-0_
  6
CONTINUOUS
 62
    7
 10
1433.8424117260838
 20
1144.0431871596566
 11
1434.5187027260836
 21
1142.0426501596576
  0
LINE
  8
_0-0_
  6
CONTINUOUS
 62
    7
 10
1435.449436726085
 20
1140.147064159657
 11
1436.6186817260859
 21
1138.3888181596576
  0
LINE
  8
_0-0_
  6
CONTINUOUS
 62
    7
 10
1438.0068517260843
 20
1136.7973611596572
 11
1439.5902587260862
 21
1135.3997761596565
  0
LINE
  8
_0-0_
  6
CONTINUOUS
 62
    7
 10
1443.0884457260836
 20
1135.3997761596565
 11
1444.6718527260855
 21
1136.7973611596572
  0
LINE
  8
_0-0_
  6
CONTINUOUS
 62
    7
 10
1446.0600227260838
 20
1138.3888181596576
 11
1447.2292677260848
 21
1140.147064159657
  0
LINE
  8
_0-0_
  6
CONTINUOUS
 62
    7
 10
1448.1600017260826
 20
1142.0426501596576
 11
1448.836292726086
 21
1144.0431871596566
  0
LINE
  8
_0-0_
  6
CONTINUOUS
 62
    7
 10
1449.2466537260843
 20
1146.114452159657
 11
1449.3842457260835
 21
1148.2217461596574
  0
LINE
  8
_0-0_
  6
CONTINUOUS
 62
    7
 10
1449.2466537260843
 20
1150.3290331596572
 11
1448.836292726086
 21
1152.4002981596568
  0
LINE
  8
_0-0_
  6
CONTINUOUS
 62
    7
 10
1441.3392857260842
 20
1134.2217461596574
 11
1443.0884457260836
 21
1135.3997761596565
  0
LINE
  8
_0-0_
  6
CONTINUOUS
 62
    7
 10
1443.0884457260836
 20
1161.0437091596568
 11
1444.6718527260855
 21
1159.6461241596571
  0
LINE
  8
_0-0_
  6
CONTINUOUS
 62
    7
 10
1446.0600227260838
 20
1158.0546671596576
 11
1447.2292677260848
 21
1156.2964211596573
  0
LINE
  8
_0-0_
  6
CONTINUOUS
 62
    7
 10
1448.1600017260826
 20
1154.4008351596576
 11
1448.836292726086
 21
1152.4002981596568
  0
LINE
  8
_0-0_
  6
CONTINUOUS
 62
    7
 10
1449.2466537260843
 20
1150.3290331596572
 11
1449.3842457260835
 21
1148.2217461596574
  0
LINE
  8
_0-0_
  6
CONTINUOUS
 62
    7
 10
1449.2466537260843
 20
1146.114452159657
 11
1448.836292726086
 21
1144.0431871596566
  0
LINE
  8
_0-0_
  6
CONTINUOUS
 62
    7
 10
1448.1600017260826
 20
1142.0426501596576
 11
1447.2292677260848
 21
1140.147064159657
  0
LINE
  8
_0-0_
  6
CONTINUOUS
 62
    7
 10
1446.0600227260838
 20
1138.3888181596576
 11
1444.6718527260855
 21
1136.7973611596572
  0
LINE
  8
_0-0_
  6
CONTINUOUS
 62
    7
 10
1234.7843722939106
 20
1134.2217461596574
 11
1441.3394257260843
 21
1134.2217461596574
  0
LINE
  8
_0-0_
  6
CONTINUOUS
 62
    4
 10
994.30153975195765
 20
1375.0660103777243
 11
983.08437229390995
 21
1364.233717678356
  0
LINE
  8
_0-0_
  6
CONTINUOUS
 62
    4
 10
994.30153975195765
 20
1375.0660103777243
 11
1500.5278438725018
 21
1357.3881983008712
  0
LINE
  8
_0-0_
  6
CONTINUOUS
 62
    4
 10
1500.5278438725018
 20
1357.3881983008712
 11
1511.1896791582585
 21
1346.3475446618297
  0
LINE
  8
_0-0_
  6
CONTINUOUS
 62
    4
 10
1497.7650579557994
 20
1246.2217461596565
 11
1506.2503393300376
 21
1246.2217461596565
  0
LINE
  8
_0-0_
  6
CONTINUOUS
 62
    4
 10
1511.1896791582585
 20
1251.161085987877
 11
1506.2503393300376
 21
1246.2217461596565
  0
LINE
  8
_0-0_
  6
CONTINUOUS
 62
    4
 10
1511.1896791582585
 20
1251.161085987877
 11
1511.1896791582585
 21
1346.3475446618297
  0
LINE
  8
_0-0_
  6
CONTINUOUS
 62
    4
 10
1380.7843722939106
 20
1237.512241567003
 11
1380.7843722939106
 21
1207.3312507523101
  0
LINE
  8
_0-0_
  6
CONTINUOUS
 62
    2
 10
1365.4195033555716
 20
1121.2292457908422
 11
1370.0120037243832
 21
1125.821746159656
  0
LINE
  8
_0-0_
  6
CONTINUOUS
 62
    2
 10
1366.9810004558803
 20
1120.8108439038308
 11
1371.9919027117066
 21
1125.8217461596578
  0
LINE
  8
_0-0_
  6
CONTINUOUS
 62
    2
 10
1368.5424975561946
 20
1120.3924420168187
 11
1373.9718016990337
 21
1125.8217461596578
  0
LINE
  8
_0-0_
  6
CONTINUOUS
 62
    4
 10
1364.2843722939106
 20
1121.5334032421174
 11
1380.7843722939106
 21
1117.1122415670047
  0
LINE
  8
_0-0_
  6
CONTINUOUS
 62
    4
 10
1364.2843722939106
 20
1202.9100890771974
 11
1380.7843722939106
 21
1207.3312507523101
  0
LINE
  8
_0-0_
  6
CONTINUOUS
 62
    2
 10
1364.2843722939142
 20
1201.2699732094015
 11
1366.5248122344728
 21
1203.5104131499613
  0
LINE
  8
_0-0_
  6
CONTINUOUS
 62
    2
 10
1364.2843722939106
 20
1199.2900742220763
 11
1369.2294045480812
 21
1204.2351064762477
  0
LINE
  8
_0-0_
  6
CONTINUOUS
 62
    2
 10
1365.5959432188174
 20
1198.621746159658
 11
1371.9339968616932
 21
1204.9597998025351
  0
LINE
  8
_0-0_
  6
CONTINUOUS
 62
    2
 10
1367.5758422061372
 20
1198.6217461596571
 11
1374.6385891753034
 21
1205.6844931288224
  0
LINE
  8
_0-0_
  6
CONTINUOUS
 62
    2
 10
1369.5557411934606
 20
1198.621746159658
 11
1377.34318148891
 21
1206.4091864551085
  0
LINE
  8
_0-0_
  6
CONTINUOUS
 62
    2
 10
1365.1246664418413
 20
1241.7082471037747
 11
1369.6381654977231
 21
1246.2217461596574
  0
LINE
  8
_0-0_
  6
CONTINUOUS
 62
    2
 10
1366.6861635421519
 20
1241.2898452167628
 11
1371.6180644850429
 21
1246.2217461596556
  0
LINE
  8
_0-0_
  6
CONTINUOUS
 62
    2
 10
1368.2476606424607
 20
1240.8714433297512
 11
1373.5979634723662
 21
1246.2217461596556
  0
LINE
  8
_0-0_
  6
CONTINUOUS
 62
    2
 10
1369.8091577427713
 20
1240.4530414427397
 11
1374.987794670571
 21
1245.6316783705388
  0
LINE
  8
_0-0_
  6
CONTINUOUS
 62
    2
 10
1371.3706548430819
 20
1240.0346395557276
 11
1375.5113717039858
 21
1244.1753564166329
  0
LINE
  8
_0-0_
  6
CONTINUOUS
 62
    2
 10
1372.9321519433925
 20
1239.6162376687159
 11
1376.0573216654484
 21
1242.7414073907703
  0
LINE
  8
_0-0_
  6
CONTINUOUS
 62
    2
 10
1374.4936490437049
 20
1239.197835781704
 11
1376.6250920287021
 21
1241.3292787667033
  0
LINE
  8
_0-0_
  6
CONTINUOUS
 62
    2
 10
1376.0551461440155
 20
1238.7794338946919
 11
1377.214174176599
 21
1239.9384619272751
  0
LINE
  8
_0-0_
  6
CONTINUOUS
 62
    2
 10
1377.6166432443224
 20
1238.3610320076812
 11
1377.8240997003923
 21
1238.5684884637521
  0
ARC
  8
_0-0_
  6
CONTINUOUS
 62
    2
 10
1452.9774270375092
 20
1272.8482405970335
 40
82.602203458253697
 50
198.80486384457157
 51
204.74803418490743
  0
LINE
  8
_0-0_
  6
CONTINUOUS
 62
    4
 10
1364.2843722939106
 20
1241.933403242117
 11
1380.7843722939106
 21
1237.512241567003
  0
ARC
  8
_0-0_
  6
CONTINUOUS
 62
    2
 10
1390.2023146962219
 20
1194.4217461596581
 40
15.979766829367051
 50
126.11208000178307
 51
164.76180838953087
  0
LINE
  8
_0-0_
  6
CONTINUOUS
 62
    2
 10
1373.5155391681037
 20
1198.621746159658
 11
1375.4447496096636
 21
1200.5509566012188
  0
LINE
  8
_0-0_
  6
CONTINUOUS
 62
    2
 10
1371.5356401807803
 20
1198.6217461596561
 11
1380.0477738025202
 21
1207.133879781396
  0
LINE
  8
_0-0_
  6
CONTINUOUS
 62
    2
 10
1371.6654917568139
 20
1119.5556382427956
 11
1375.612699100333
 21
1123.5028455863142
  0
LINE
  8
_0-0_
  6
CONTINUOUS
 62
    2
 10
1370.1039946565015
 20
1119.9740401298075
 11
1375.0565944849677
 21
1124.9266399582734
  0
ARC
  8
_0-0_
  6
CONTINUOUS
 62
    2
 10
1390.2023146962238
 20
1130.0217461596603
 40
15.979766829371336
 50
195.23819161048107
 51
233.88791999821916
  0
LINE
  8
_0-0_
  6
CONTINUOUS
 62
    2
 10
1379.4729772583669
 20
1117.4636288077372
 11
1379.8543618700241
 21
1117.8450134193959
  0
LINE
  8
_0-0_
  6
CONTINUOUS
 62
    2
 10
1377.9114801580545
 20
1117.8820306947491
 11
1378.8276063103694
 21
1118.7981568470636
  0
LINE
  8
_0-0_
  6
CONTINUOUS
 62
    2
 10
968.64444312337048
 20
272.20289766242809
 11
972.10442763502954
 21
275.66288217408942
  0
LINE
  8
_0-0_
  6
CONTINUOUS
 62
    2
 10
965.13107464766847
 20
273.14430190820553
 11
970.1879367597013
 21
278.20116402023746
  0
LINE
  8
_0-0_
  6
CONTINUOUS
 62
    2
 10
961.6177061719701
 20
274.08570615398207
 11
968.47717130178182
 21
280.94517128379289
  0
LINE
  8
_0-0_
  6
CONTINUOUS
 62
  136
 10
846.99681890474324
 20
484.42585321269803
 11
856.44681890474578
 21
484.42585321269803
  0
LINE
  8
_0-0_
  6
CONTINUOUS
 62
  136
 10
846.99681890474324
 20
452.92585321269803
 11
846.99681890474324
 21
484.42585321269803
  0
LINE
  8
_0-0_
  6
CONTINUOUS
 62
  136
 10
856.44681890474578
 20
452.92585321269803
 11
856.44681890474578
 21
484.42585321269803
  0
LINE
  8
_0-0_
  6
CONTINUOUS
 62
  136
 10
728.87181890474324
 20
452.92585321269803
 11
846.99681890474324
 21
452.92585321269803
  0
LINE
  8
_0-0_
  6
CONTINUOUS
 62
  136
 10
728.87181890474324
 20
289.12585321269557
 11
846.99681890474324
 21
289.12585321269557
  0
LINE
  8
_0-0_
  6
CONTINUOUS
 62
  136
 10
846.99681890474324
 20
289.12585321269557
 11
846.99681890474324
 21
257.62585321269557
  0
LINE
  8
_0-0_
  6
CONTINUOUS
 62
  136
 10
846.99681890474324
 20
257.62585321269557
 11
856.44681890474578
 21
257.62585321269557
  0
LINE
  8
_0-0_
  6
CONTINUOUS
 62
  136
 10
856.44681890474578
 20
289.12585321269557
 11
856.44681890474578
 21
257.62585321269557
  0
LINE
  8
_0-0_
  6
CONTINUOUS
 62
    7
 10
927.32181890474578
 20
443.47585321269821
 11
950.94681890474578
 21
434.02585321269657
  0
LINE
  8
_0-0_
  6
CONTINUOUS
 62
    7
 10
950.94681890474578
 20
443.47585321269821
 11
927.32181890474578
 21
434.02585321269657
  0
LINE
  8
_0-0_
  6
CONTINUOUS
 62
    7
 10
927.32181890474578
 20
308.02585321269657
 11
950.94681890474578
 21
298.57585321269494
  0
LINE
  8
_0-0_
  6
CONTINUOUS
 62
    7
 10
950.94681890474578
 20
308.02585321269657
 11
927.32181890474578
 21
298.57585321269494
  0
LINE
  8
_0-0_
  6
CONTINUOUS
 62
    7
 10
927.32181890474578
 20
308.02585321269657
 11
927.32181890474578
 21
298.57585321269494
  0
LINE
  8
_0-0_
  6
CONTINUOUS
 62
    7
 10
950.94681890474578
 20
308.02585321269657
 11
950.94681890474578
 21
298.57585321269494
  0
LINE
  8
_0-0_
  6
CONTINUOUS
 62
    7
 10
950.94681890474578
 20
443.47585321269821
 11
950.94681890474578
 21
434.02585321269657
  0
LINE
  8
_0-0_
  6
CONTINUOUS
 62
    7
 10
927.32181890474578
 20
443.47585321269821
 11
927.32181890474578
 21
434.02585321269657
  0
LINE
  8
_0-0_
  6
CONTINUOUS
 62
    2
 10
954.92444418036223
 20
298.5758532127013
 11
964.37444418035932
 21
308.02585321269657
  0
LINE
  8
_0-0_
  6
CONTINUOUS
 62
    2
 10
950.94681890474578
 20
299.0530006585584
 11
959.91967145888168
 21
308.02585321269657
  0
LINE
  8
_0-0_
  6
CONTINUOUS
 62
    2
 10
950.94681890474578
 20
303.50777338003195
 11
955.46489873740768
 21
308.02585321269657
  0
LINE
  8
_0-0_
  6
CONTINUOUS
 62
    2
 10
950.94681890474578
 20
307.96254610150777
 11
951.01012601593368
 21
308.02585321269657
  0
LINE
  8
_0-0_
  6
CONTINUOUS
 62
    2
 10
952.27648981463074
 20
434.02585321270112
 11
961.72648981462783
 21
443.47585321269821
  0
LINE
  8
_0-0_
  6
CONTINUOUS
 62
    2
 10
950.94681890474578
 20
437.15095502428744
 11
957.27171709315019
 21
443.47585321269457
  0
LINE
  8
_0-0_
  6
CONTINUOUS
 62
    2
 10
950.94681890474578
 20
441.60572774576508
 11
952.81694437167255
 21
443.47585321269457
  0
LINE
  8
_0-0_
  6
CONTINUOUS
 62
    7
 10
941.49681890474324
 20
265.50085321269557
 11
941.49681890474324
 21
289.12585321269557
  0
LINE
  8
_0-0_
  6
CONTINUOUS
 62
    7
 10
941.49681890474324
 20
265.50085321269557
 11
965.12181890474324
 21
259.17055354151148
  0
LINE
  8
_0-0_
  6
CONTINUOUS
 62
  136
 10
728.87181890474324
 20
452.92585321269803
 11
728.87181890474324
 21
443.47585321269821
  0
LINE
  8
_0-0_
  6
CONTINUOUS
 62
  136
 10
728.87181890474324
 20
298.57585321269494
 11
728.87181890474324
 21
289.12585321269557
  0
LINE
  8
_0-0_
  6
CONTINUOUS
 62
    2
 10
941.4968189047396
 20
280.69345521560376
 11
949.92921690183368
 21
289.1258532126933
  0
LINE
  8
_0-0_
  6
CONTINUOUS
 62
    2
 10
941.49681890474687
 20
285.14822793708504
 11
945.47444418036332
 21
289.12585321269967
  0
LINE
  8
_0-0_
  6
CONTINUOUS
 62
  136
 10
965.12181890474324
 20
298.57585321269494
 11
965.12181890474324
 21
289.12585321269557
  0
LINE
  8
_0-0_
  6
CONTINUOUS
 62
  136
 10
965.12181890474324
 20
452.92585321269803
 11
965.12181890474324
 21
443.47585321269821
  0
LINE
  8
_0-0_
  6
CONTINUOUS
 62
  136
 10
856.44681890474578
 20
452.92585321269803
 11
965.12181890474324
 21
452.92585321269803
  0
LINE
  8
_0-0_
  6
CONTINUOUS
 62
  136
 10
728.87181890474324
 20
443.47585321269821
 11
965.12181890474324
 21
443.47585321269821
  0
LINE
  8
_0-0_
  6
CONTINUOUS
 62
  136
 10
728.87181890474324
 20
298.57585321269494
 11
965.12181890474324
 21
298.57585321269494
  0
LINE
  8
_0-0_
  6
CONTINUOUS
 62
  136
 10
856.44681890474578
 20
289.12585321269557
 11
965.12181890474324
 21
289.12585321269557
  0
ARC
  8
_0-0_
  6
CONTINUOUS
 62
    2
 10
992.89707245517468
 20
303.30085321269621
 40
28.1742849916495
 50
170.34552531892481
 51
189.65447468107519
  0
LINE
  8
_0-0_
  6
CONTINUOUS
 62
    2
 10
959.37921690183441
 20
298.57585321269494
 11
964.72973204838138
 21
303.92636835924191
  0
LINE
  8
_0-0_
  6
CONTINUOUS
 62
    2
 10
963.83398962330841
 20
298.57585321269494
 11
964.9543314601143
 21
299.69619504949856
  0
ARC
  8
_0-0_
  6
CONTINUOUS
 62
    2
 10
987.58299685895338
 20
438.75085321269785
 40
22.95278066140575
 50
168.12030433418508
 51
191.87969566581492
  0
LINE
  8
_0-0_
  6
CONTINUOUS
 62
    2
 10
961.18603525757692
 20
434.02585321269294
 11
964.66411118681765
 21
437.50392914193594
  0
LINE
  8
_0-0_
  6
CONTINUOUS
 62
    2
 10
956.73126253609928
 20
434.02585321269294
 11
964.88824825709355
 21
442.18283893368903
  0
LINE
  8
_0-0_
  6
CONTINUOUS
 62
    7
 10
941.49681890474324
 20
476.55085321269803
 11
941.49681890474324
 21
452.92585321269803
  0
LINE
  8
_0-0_
  6
CONTINUOUS
 62
    7
 10
941.49681890474324
 20
476.55085321269803
 11
965.12181890474324
 21
482.88115288388167
  0
LINE
  8
_0-0_
  6
CONTINUOUS
 62
  136
 10
728.87181890474324
 20
452.92585321269803
 11
728.87181890474324
 21
443.47585321269821
  0
LINE
  8
_0-0_
  6
CONTINUOUS
 62
  136
 10
728.87181890474324
 20
298.57585321269494
 11
728.87181890474324
 21
289.12585321269557
  0
LINE
  8
_0-0_
  6
CONTINUOUS
 62
    7
 10
1114.870689127134
 20
308.02585321269657
 11
1110.9350633771337
 21
310.67642071269461
  0
LINE
  8
_0-0_
  6
CONTINUOUS
 62
    7
 10
1107.372397627134
 20
313.82098696269645
 11
1104.249015127134
 21
317.401765212697
  0
LINE
  8
_0-0_
  6
CONTINUOUS
 62
    7
 10
1101.618213877131
 20
321.35781871269614
 11
1099.5240623771333
 21
325.62288721269692
  0
LINE
  8
_0-0_
  6
CONTINUOUS
 62
    7
 10
1098.0024076271329
 20
330.12409546269487
 11
1097.079095377132
 21
334.78444171269598
  0
LINE
  8
_0-0_
  6
CONTINUOUS
 62
    7
 10
1096.769529127132
 20
339.52585321269657
 11
1097.079095377132
 21
344.26724896269639
  0
LINE
  8
_0-0_
  6
CONTINUOUS
 62
    7
 10
1098.0024076271329
 20
348.92759521269568
 11
1099.5240623771333
 21
353.42880346269726
  0
LINE
  8
_0-0_
  6
CONTINUOUS
 62
    7
 10
1101.618213877131
 20
357.69387196269622
 11
1104.249015127134
 21
361.64992546269718
  0
LINE
  8
_0-0_
  6
CONTINUOUS
 62
    7
 10
1107.372397627134
 20
365.23070371269591
 11
1110.9350633771337
 21
368.37526996269548
  0
LINE
  8
_0-0_
  6
CONTINUOUS
 62
    7
 10
1114.870689127134
 20
371.02585321269476
 11
1118.8059841271333
 21
373.67642071269688
  0
LINE
  8
_0-0_
  6
CONTINUOUS
 62
    7
 10
1122.3686498771331
 20
376.82098696269645
 11
1125.492032377133
 21
380.40176521269518
  0
LINE
  8
_0-0_
  6
CONTINUOUS
 62
    7
 10
1128.1228336271361
 20
384.35781871269614
 11
1130.2169851271301
 21
388.6228872126951
  0
LINE
  8
_0-0_
  6
CONTINUOUS
 62
    7
 10
1131.7386398771341
 20
393.12409546269669
 11
1132.6619521271296
 21
397.78444171269598
  0
LINE
  8
_0-0_
  6
CONTINUOUS
 62
    7
 10
1132.9715341271331
 20
402.52585321269657
 11
1132.6619521271296
 21
407.26724896269639
  0
LINE
  8
_0-0_
  6
CONTINUOUS
 62
    7
 10
1131.7386398771341
 20
411.92759521269568
 11
1130.2169851271301
 21
416.42880346269726
  0
LINE
  8
_0-0_
  6
CONTINUOUS
 62
    7
 10
1128.1228336271361
 20
420.69387196269622
 11
1125.492032377133
 21
424.64992546269718
  0
LINE
  8
_0-0_
  6
CONTINUOUS
 62
    7
 10
1122.3686498771331
 20
428.23070371269591
 11
1118.8059841271333
 21
431.37526996269548
  0
LINE
  8
_0-0_
  6
CONTINUOUS
 62
    7
 10
1114.8703741271293
 20
434.02585321269657
 11
1118.8059841271333
 21
431.37526996269548
  0
LINE
  8
_0-0_
  6
CONTINUOUS
 62
    7
 10
1122.3686498771331
 20
428.23070371269591
 11
1125.492032377133
 21
424.64992546269718
  0
LINE
  8
_0-0_
  6
CONTINUOUS
 62
    7
 10
1128.1228336271361
 20
420.69387196269622
 11
1130.2169851271301
 21
416.42880346269726
  0
LINE
  8
_0-0_
  6
CONTINUOUS
 62
    7
 10
1131.7386398771341
 20
411.92759521269568
 11
1132.6619521271296
 21
407.26724896269639
  0
LINE
  8
_0-0_
  6
CONTINUOUS
 62
    7
 10
1132.9715341271331
 20
402.52585321269657
 11
1132.6619521271296
 21
397.78444171269598
  0
LINE
  8
_0-0_
  6
CONTINUOUS
 62
    7
 10
1131.7386398771341
 20
393.12409546269669
 11
1130.2169851271301
 21
388.6228872126951
  0
LINE
  8
_0-0_
  6
CONTINUOUS
 62
    7
 10
1128.1228336271361
 20
384.35781871269614
 11
1125.492032377133
 21
380.40176521269518
  0
LINE
  8
_0-0_
  6
CONTINUOUS
 62
    7
 10
1122.3686498771331
 20
376.82098696269645
 11
1118.8059841271333
 21
373.67642071269688
  0
LINE
  8
_0-0_
  6
CONTINUOUS
 62
    7
 10
1114.870689127134
 20
371.02585321269476
 11
1110.9350633771337
 21
368.37526996269548
  0
LINE
  8
_0-0_
  6
CONTINUOUS
 62
    7
 10
1114.870689127134
 20
371.02585321269476
 11
1118.8059841271333
 21
368.37526996269548
  0
LINE
  8
_0-0_
  6
CONTINUOUS
 62
    7
 10
1122.3686498771331
 20
365.23070371269591
 11
1125.492032377133
 21
361.64992546269718
  0
LINE
  8
_0-0_
  6
CONTINUOUS
 62
    7
 10
1128.1228336271361
 20
357.69387196269622
 11
1130.2169851271301
 21
353.42880346269726
  0
LINE
  8
_0-0_
  6
CONTINUOUS
 62
    7
 10
1107.372397627134
 20
365.23070371269591
 11
1104.249015127134
 21
361.64992546269718
  0
LINE
  8
_0-0_
  6
CONTINUOUS
 62
    7
 10
1101.618213877131
 20
357.69387196269622
 11
1099.5240623771333
 21
353.42880346269726
  0
LINE
  8
_0-0_
  6
CONTINUOUS
 62
    7
 10
1098.0024076271329
 20
348.92759521269568
 11
1097.079095377132
 21
344.26724896269639
  0
LINE
  8
_0-0_
  6
CONTINUOUS
 62
    7
 10
1096.769529127132
 20
339.52585321269657
 11
1097.079095377132
 21
334.78444171269598
  0
LINE
  8
_0-0_
  6
CONTINUOUS
 62
    7
 10
1098.0024076271329
 20
330.12409546269487
 11
1099.5240623771333
 21
325.62288721269692
  0
LINE
  8
_0-0_
  6
CONTINUOUS
 62
    7
 10
1101.618213877131
 20
321.35781871269614
 11
1104.249015127134
 21
317.401765212697
  0
LINE
  8
_0-0_
  6
CONTINUOUS
 62
    7
 10
1107.372397627134
 20
313.82098696269645
 11
1110.9350633771337
 21
310.67642071269461
  0
LINE
  8
_0-0_
  6
CONTINUOUS
 62
    7
 10
1118.8059841271333
 20
310.67642071269461
 11
1122.3686498771331
 21
313.82098696269645
  0
LINE
  8
_0-0_
  6
CONTINUOUS
 62
    7
 10
1125.492032377133
 20
317.401765212697
 11
1128.1228336271361
 21
321.35781871269614
  0
LINE
  8
_0-0_
  6
CONTINUOUS
 62
    7
 10
1130.2169851271301
 20
325.62288721269692
 11
1131.7386398771341
 21
330.12409546269487
  0
LINE
  8
_0-0_
  6
CONTINUOUS
 62
    7
 10
1132.6619521271296
 20
334.78444171269598
 11
1132.9715341271331
 21
339.52585321269657
  0
LINE
  8
_0-0_
  6
CONTINUOUS
 62
    7
 10
1132.6619521271296
 20
344.26724896269639
 11
1131.7386398771341
 21
348.92759521269568
  0
LINE
  8
_0-0_
  6
CONTINUOUS
 62
    7
 10
1114.8703741271293
 20
308.02585321269657
 11
1118.8059841271333
 21
310.67642071269461
  0
LINE
  8
_0-0_
  6
CONTINUOUS
 62
    7
 10
1118.8059841271333
 20
368.37526996269548
 11
1122.3686498771331
 21
365.23070371269591
  0
LINE
  8
_0-0_
  6
CONTINUOUS
 62
    7
 10
1125.492032377133
 20
361.64992546269718
 11
1128.1228336271361
 21
357.69387196269622
  0
LINE
  8
_0-0_
  6
CONTINUOUS
 62
    7
 10
1130.2169851271301
 20
353.42880346269726
 11
1131.7386398771341
 21
348.92759521269568
  0
LINE
  8
_0-0_
  6
CONTINUOUS
 62
    7
 10
1132.6619521271296
 20
344.26724896269639
 11
1132.9715341271331
 21
339.52585321269657
  0
LINE
  8
_0-0_
  6
CONTINUOUS
 62
    7
 10
1132.6619521271296
 20
334.78444171269598
 11
1131.7386398771341
 21
330.12409546269487
  0
LINE
  8
_0-0_
  6
CONTINUOUS
 62
    7
 10
1130.2169851271301
 20
325.62288721269692
 11
1128.1228336271361
 21
321.35781871269614
  0
LINE
  8
_0-0_
  6
CONTINUOUS
 62
    7
 10
1125.492032377133
 20
317.401765212697
 11
1122.3686498771331
 21
313.82098696269645
  0
LINE
  8
_0-0_
  6
CONTINUOUS
 62
    2
 10
944.05086379347824
 20
278.79272738286249
 11
954.38398962330768
 21
289.1258532126933
  0
LINE
  8
_0-0_
  6
CONTINUOUS
 62
    2
 10
947.56423226917479
 20
277.85132313708687
 11
958.83876234478532
 21
289.12585321269785
  0
LINE
  8
_0-0_
  6
CONTINUOUS
 62
    2
 10
951.07760074487862
 20
276.90991889130987
 11
963.2935350662666
 21
289.12585321269785
  0
LINE
  8
_0-0_
  6
CONTINUOUS
 62
    4
 10
941.49681890474324
 20
279.47708164823166
 11
978.62181890474324
 21
269.52946787922815
  0
LINE
  8
_0-0_
  6
CONTINUOUS
 62
    4
 10
941.49681890474324
 20
462.57462477716149
 11
978.62181890474324
 21
472.522238546165
  0
LINE
  8
_0-0_
  6
CONTINUOUS
 62
    2
 10
941.49681890474687
 20
458.88436407462109
 11
946.53780877100883
 21
463.92535394088031
  0
LINE
  8
_0-0_
  6
CONTINUOUS
 62
    2
 10
941.4968189047396
 20
454.42959135313936
 11
952.62314147662448
 21
465.5559139250247
  0
LINE
  8
_0-0_
  6
CONTINUOUS
 62
    2
 10
944.44785348577909
 20
452.92585321269803
 11
958.70847418225105
 21
467.18647390917181
  0
LINE
  8
_0-0_
  6
CONTINUOUS
 62
    2
 10
948.90262620725309
 20
452.92585321269621
 11
964.79380688787398
 21
468.81703389331801
  0
LINE
  8
_0-0_
  6
CONTINUOUS
 62
    2
 10
953.35739892872709
 20
452.92585321269803
 11
970.87913959348964
 21
470.44759387746149
  0
ARC
  8
_0-0_
  6
CONTINUOUS
 62
    2
 10
999.81218930994157
 20
443.47585321269821
 40
35.954475366075869
 50
126.11208000178307
 51
164.76180838953087
  0
LINE
  8
_0-0_
  6
CONTINUOUS
 62
    2
 10
962.26694437167873
 20
452.92585321269803
 11
966.60766786518627
 21
457.26657670621012
  0
LINE
  8
_0-0_
  6
CONTINUOUS
 62
    2
 10
957.81217165019564
 20
452.92585321269394
 11
976.96447229911439
 21
472.0781538616086
  0
LINE
  8
_0-0_
  6
CONTINUOUS
 62
    2
 10
958.10433769627355
 20
275.0271103997577
 11
966.98555421919093
 21
283.90832692267418
  0
LINE
  8
_0-0_
  6
CONTINUOUS
 62
    2
 10
954.59096922057336
 20
275.96851464553424
 11
965.73431883462047
 21
287.11186425958272
  0
ARC
  8
_0-0_
  6
CONTINUOUS
 62
    2
 10
999.81218930994885
 20
298.57585321270312
 40
35.954475366085504
 50
195.23819161048107
 51
233.88791999821916
  0
LINE
  8
_0-0_
  6
CONTINUOUS
 62
    2
 10
975.67118007476722
 20
270.32008917087637
 11
976.5292954509988
 21
271.17820454710841
  0
LINE
  8
_0-0_
  6
CONTINUOUS
 62
    2
 10
972.15781159906703
 20
271.26149341665337
 11
974.21909544177481
 21
273.32277725936069
  0
LINE
  8
_0-0_
  6
CONTINUOUS
 62
    4
 10
978.62181890474324
 20
529.02585321269657
 11
978.62181890474324
 21
472.522238546165
  0
LINE
  8
_0-0_
  6
CONTINUOUS
 62
    7
 10
965.12181890474324
 20
529.02585321269657
 11
965.12181890474324
 21
482.88115288388167
  0
LINE
  8
_0-0_
  6
CONTINUOUS
 62
    7
 10
728.87181890474324
 20
443.47585321269821
 11
728.87181890474324
 21
529.02585321269657
  0
LINE
  8
_0-0_
  6
CONTINUOUS
 62
    7
 10
872.27143879253538
 20
213.02585321269657
 11
941.49681890474324
 21
282.25123332490534
  0
LINE
  8
_0-0_
  6
CONTINUOUS
 62
    7
 10
888.18134136923084
 20
213.02585321269657
 11
941.49681890474324
 21
266.34133074820943
  0
LINE
  8
_0-0_
  6
CONTINUOUS
 62
    7
 10
904.09124394592993
 20
213.02585321269657
 11
953.38169972736989
 21
262.31630899413517
  0
LINE
  8
_0-0_
  6
CONTINUOUS
 62
    7
 10
965.12181890474324
 20
259.17055354151148
 11
965.12181890474324
 21
213.02585321269657
  0
LINE
  8
_0-0_
  6
CONTINUOUS
 62
    4
 10
978.62181890474324
 20
269.52946787922815
 11
978.62181890474324
 21
213.02585321269657
  0
LINE
  8
_0-0_
  6
CONTINUOUS
 62
    7
 10
728.87181890474324
 20
298.57585321269494
 11
728.87181890474324
 21
213.02585321269657
  0
LINE
  8
_0-0_
  6
CONTINUOUS
 62
    7
 10
710.47165680518094
 20
308.02585321269657
 11
1114.870689127134
 21
308.02585321269657
  0
LINE
  8
_0-0_
  6
CONTINUOUS
 62
    7
 10
710.47165680518094
 20
434.02585321269657
 11
1114.8703741271293
 21
434.02585321269657
  0
POINT
  8
_0-0_
 62
    7
 10
960.18737712229461
 20
438.92416390685048
  0
POINT
  8
_0-0_
 62
    7
 10
959.09469737887241
 20
459.68507903187856
  0
LINE
  8
_0-0_
  6
CONTINUOUS
 62
    7
 10
959.09469737887241
 20
459.68507903187856
 11
1028.2339980340148
 21
478.21089880767681
  0
LINE
  8
_0-0_
  6
CONTINUOUS
 62
    7
 10
960.18737712229461
 20
438.92416390685048
 11
1028.2339980340148
 21
478.21089880767681
  0
LINE
  8
_0-0_
  6
CONTINUOUS
 62
    7
 10
961.77806518472983
 20
304.62508509549298
 11
1029.0000836647941
 21
265.8144346305578
  0
POINT
  8
_0-0_
 62
    7
 10
961.77806518472983
 20
304.62508509549298
  0
LINE
  8
_0-0_
  6
CONTINUOUS
 62
    7
 10
959.72416752122638
 20
279.9783131334525
 11
1029.0000836647941
 21
265.8144346305578
  0
POINT
  8
_0-0_
 62
    7
 10
959.72416752122638
 20
279.9783131334525
  0
TEXT
  8
_0-0_
 62
    7
 10
1033.6644834073468
 20
467.90994934401033
 40
21.617968000000001
 41
1
 50
0
  1
ｼｰﾘﾝｸﾞ
  0
TEXT
  8
_0-0_
 62
    7
 10
1036.745329902602
 20
254.30459233966053
 40
21.617968000000001
 41
1
 50
0
  1
ｼｰﾘﾝｸﾞ
  0
LINE
  8
_0-0_
  6
CONTINUOUS
 62
    4
 10
983.08437229390995
 20
1364.233717678356
 11
983.08437229390995
 21
939.10069188254238
  0
LINE
  8
_0-0_
  6
CONTINUOUS
 62
    4
 10
983.08437229390995
 20
939.10069188254238
 11
772.78437229391068
 21
939.10069188254238
  0
LINE
  8
_0-0_
  6
CONTINUOUS
 62
    4
 10
1380.7843722939106
 20
1117.1122415670047
 11
1380.7843722939106
 21
939.10069188254238
  0
LINE
  8
_0-0_
  6
CONTINUOUS
 62
    4
 10
1380.7843722939106
 20
939.10069188254238
 11
1584.7843722939106
 21
939.10069188254238
  0
LINE
  8
_0-0_
  6
CONTINUOUS
 62
    7
 10
1221.8876786811143
 20
417.70126192620387
 11
1296.4112665855282
 21
492.2248498306169
  0
LINE
  8
_0-0_
  6
CONTINUOUS
 62
    7
 10
1221.8876786811143
 20
433.61116450290115
 11
1280.5013640088309
 21
492.2248498306169
  0
LINE
  8
_0-0_
  6
CONTINUOUS
 62
    7
 10
1221.8876786811143
 20
449.52106707959661
 11
1264.5914614321355
 21
492.2248498306169
  0
LINE
  8
_0-0_
  6
CONTINUOUS
 62
    7
 10
1311.3090171091026
 20
275.07390420477509
 11
1671.4806197284943
 21
275.07390420477509
  0
LINE
  8
_0-0_
  6
CONTINUOUS
 62
    7
 10
1507.1594001526628
 20
193.8561009434377
 11
1588.3772034139984
 21
275.07390420477236
  0
LINE
  8
_0-0_
  6
CONTINUOUS
 62
    7
 10
1491.2494975759655
 20
193.8561009434377
 11
1572.4673008373011
 21
275.07390420477236
  0
LINE
  8
_0-0_
  6
CONTINUOUS
 62
    7
 10
1475.33959499927
 20
193.8561009434377
 11
1556.5573982606074
 21
275.07390420477236
  0
LINE
  8
_0-0_
  6
CONTINUOUS
 62
    7
 10
1311.3090171091026
 20
275.07390420477509
 11
1311.3090171091026
 21
492.2248498306169
  0
LINE
  8
_0-0_
  6
CONTINUOUS
 62
    7
 10
1576.5440135260415
 20
275.07390420477509
 11
1607.9087215411982
 21
329.3991720515894
  0
POINT
  8
_0-0_
 62
    7
 10
1576.5440135260415
 20
275.07390420477509
  0
TEXT
  8
_0-0_
 62
    7
 10
1602.5034536530766
 20
330.75926988856418
 40
21.617968000000001
 41
1
 50
0
  1
ﾌﾟﾗｲﾏｰ
  0
LINE
  8
_0-0_
  6
CONTINUOUS
 62
    4
 10
1324.8090171091026
 20
492.2248498306169
 11
1324.8090171091026
 21
295.32390420477509
  0
LINE
  8
_0-0_
  6
CONTINUOUS
 62
    4
 10
1324.8090171091026
 20
295.32390420477509
 11
1671.4806197284943
 21
295.32390420477509
  0
LINE
  8
_0-0_
  6
CONTINUOUS
 62
    7
 10
1436.4809263619245
 20
284.08143376096245
 11
1499.8938073245026
 21
393.91576544246459
  0
TEXT
  8
_0-0_
 62
    7
 10
1503.7544361498458
 20
384.48965732502461
 40
21.617968000000001
 41
1
 50
0
  1
ｳﾚﾀﾝ防水
  0
POINT
  8
_0-0_
 62
    7
 10
1436.4809263619245
 20
284.08143376096245
  0
LINE
  8
_0-0_
  6
CONTINUOUS
 62
    7
 10
1353.8157025103592
 20
295.32390420477509
 11
1445.0725735951546
 21
453.38544146340155
  0
POINT
  8
_0-0_
 62
    7
 10
1353.8157025103592
 20
295.32390420477509
  0
TEXT
  8
_0-0_
 62
    7
 10
1451.040118778712
 20
444.23255034564158
 40
21.617968000000001
 41
1
 50
0
  1
ﾄｯﾌﾟｺｰﾄ
  0
LINE
  8
_0-0_
  6
CONTINUOUS
 62
    7
 10
672.13606690525205
 20
1633.3565543671134
 11
1706.8525777203686
 21
1633.3565543671134
  0
LINE
  8
_0-0_
  6
CONTINUOUS
 62
    7
 10
672.13606690525205
 20
1553.3565543671134
 11
1706.8525777203686
 21
1553.3565543671134
  0
LINE
  8
_0-0_
  6
CONTINUOUS
 62
    7
 10
672.13606690525205
 20
1473.3565543671134
 11
1706.8525777203686
 21
1473.3565543671134
  0
LINE
  8
_0-0_
  6
CONTINUOUS
 62
    7
 10
1189.4943223128103
 20
1633.3565543671134
 11
1189.4943223128103
 21
1473.3565543671134
  0
TEXT
  8
_0-0_
 62
    7
 10
696.13606690525205
 20
1497.3565543671134
 40
20
 41
1
 50
0
  1
施工部位：ハト小屋
  0
TEXT
  8
_0-0_
 62
    7
 10
1213.4943223128103
 20
1577.3565543671134
 40
20
 41
1
 50
0
  1
構造：ＲＣ造
  0
TEXT
  8
_0-0_
 62
    7
 10
1213.4943223128103
 20
1497.3565543671134
 40
20
 41
1
 50
0
  1
下地：コンクリートスラブ
  0
TEXT
  8
_0-0_
 62
    7
 10
696.13606690525205
 20
1577.3565543671134
 40
20
 41
1
 50
0
  1
図面番号：UPM-10-hato-01
  0
ENDSEC
  0
EOF
