  0
SECTION
  2
HEADER
  9
$ACADVER
  1
AC1009
  9
$INSBASE
 10
0
 20
0
 30
0
  9
$EXTMIN
 10
0
 20
0
  9
$EXTMAX
 10
2378
 20
1682
  9
$LIMMIN
 10
0
 20
0
  9
$LIMMAX
 10
2378
 20
1682
  9
$LTSCALE
 40
1
  0
ENDSEC
  0
SECTION
  2
TABLES
  0
TABLE
  2
LTYPE
 70
     9
  0
LTYPE
  2
CONTINUOUS
 70
    64
  3
実線
 72
    65
 73
     0
 40
0.0
  0
LTYPE
  2
DASHED1
 70
    64
  3
--  --  --  --  --  --  --  --  
 72
    65
 73
     2
 40
2.5
 49
1.25
 49
-1.25
  0
LTYPE
  2
DASHED2
 70
    64
  3
----    ----    ----    ----    
 72
    65
 73
     2
 40
5.0
 49
2.5
 49
-2.5
  0
LTYPE
  2
DASHED3
 70
    64
  3
------  ------  ------  ------  
 72
    65
 73
     2
 40
5.0
 49
3.75
 49
-1.25
  0
LTYPE
  2
CENTER1
 70
    64
  3
----- - ----- - ----- - ----- - 
 72
    65
 73
     4
 40
10.0
 49
6.25
 49
-1.25
 49
1.25
 49
-1.25
  0
LTYPE
  2
CENTER2
 70
    64
  3
----------  --  ----------  --  
 72
    65
 73
     4
 40
20.0
 49
12.5
 49
-2.5
 49
2.5
 49
-2.5
  0
LTYPE
  2
PHANTOM1
 70
    64
  3
--- - - --- - - --- - - --- - - 
 72
    65
 73
     6
 40
10.0
 49
3.25
 49
-1.25
 49
1.25
 49
-1.25
 49
1.25
 49
-1.25
  0
LTYPE
  2
PHANTOM2
 70
    64
  3
--------  -  -  --------  -  -  
 72
    65
 73
     6
 40
20.0
 49
10.0
 49
-2.5
 49
1.25
 49
-2.5
 49
1.25
 49
-2.5
  0
LTYPE
  2
DOT
 70
    64
  3
-   -   -   -   -   -   -   -   
 72
    65
 73
     2
 40
2.5
 49
0.625
 49
-1.875
  0
LTYPE
  2
DUMMY
 70
    64
  3
ダミー
 72
    65
 73
     0
 40
0.0
  0
LTYPE
  2
RAND1
 70
    64
  3
ランダム線1
 72
    65
 73
     4
 40
10.0
 49
1.0
 49
-2.0
 49
3.0
 49
-4.0
  0
LTYPE
  2
RAND2
 70
    64
  3
ランダム線2
 72
    65
 73
     4
 40
14.0
 49
2.0
 49
-3.0
 49
4.0
 49
-5.0
  0
LTYPE
  2
RAND3
 70
    64
  3
ランダム線3
 72
    65
 73
     4
 40
18.0
 49
3.0
 49
-4.0
 49
5.0
 49
-6.0
  0
LTYPE
  2
RAND4
 70
    64
  3
ランダム線4
 72
    65
 73
     4
 40
22.0
 49
4.0
 49
-5.0
 49
6.0
 49
-7.0
  0
LTYPE
  2
RAND5
 70
    64
  3
ランダム線5
 72
    65
 73
     4
 40
26.0
 49
5.0
 49
-6.0
 49
7.0
 49
-8.0
  0
LTYPE
  2
LONG1
 70
    64
  3
----------  --  ----------  --  
 72
    65
 73
     4
 40
40.0
 49
32.5
 49
-2.5
 49
2.5
 49
-2.5
  0
LTYPE
  2
LONG2
 70
    64
  3
--------  -  -  --------  -  -  
 72
    65
 73
     6
 40
40.0
 49
30.0
 49
-2.5
 49
1.25
 49
-2.5
 49
1.25
 49
-2.5
  0
LTYPE
  2
LONG3
 70
    64
  3
+++++++++++++++..+++++++++++++++
 72
    65
 73
     2
 40
40.0
 49
37.5
 49
-2.5
  0
LTYPE
  2
LONG4
 70
    64
  3
+++++++++++++++..+++++++++++++++
 72
    65
 73
     2
 40
80.0
 49
75.0
 49
-5.0
  0
LTYPE
  2
LONG5
 70
    64
  3
----------  --  ----------  --  
 72
    65
 73
     4
 40
60.0
 49
37.5
 49
-7.5
 49
7.5
 49
-7.5
  0
LTYPE
  2
dashed
 70
   64
  3
-------   -------------   ------
 72
   65
 73
    2
 40
7.5
 49
6
 49
-1.5
  0
LTYPE
  2
dashed_spaced
 70
   64
  3
----        --------        ----
 72
   65
 73
    2
 40
12
 49
6
 49
-6
  0
LTYPE
  2
long_dashed_dotted
 70
   64
  3
------------- --- --------------
 72
   65
 73
    4
 40
15.25
 49
12
 49
-1.5
 49
0.25
 49
-1.5
  0
LTYPE
  2
long_dashed_double-dotted
 70
   64
  3
----------- --- --- ------------
 72
   65
 73
    6
 40
17
 49
12
 49
-1.5
 49
0.25
 49
-1.5
 49
0.25
 49
-1.5
  0
LTYPE
  2
long_dashed_triplicate-dotted
 70
   64
  3
--------- --- --- --- ----------
 72
   65
 73
    8
 40
18.75
 49
12
 49
-1.5
 49
0.25
 49
-1.5
 49
0.25
 49
-1.5
 49
0.25
 49
-1.5
  0
LTYPE
  2
dotted
 70
   64
  3
   -       -       -       -    
 72
   65
 73
    2
 40
1.75
 49
0.25
 49
-1.5
  0
LTYPE
  2
chain
 70
   64
  3
-------------- -- --------------
 72
   65
 73
    4
 40
18.5
 49
12
 49
-1.5
 49
3.5
 49
-1.5
  0
LTYPE
  2
chain_double_dash
 70
   64
  3
------------ -- -- -------------
 72
   65
 73
    6
 40
23.5
 49
12
 49
-1.5
 49
3.5
 49
-1.5
 49
3.5
 49
-1.5
  0
LTYPE
  2
dashed_dotted
 70
   64
  3
-----------     -     ----------
 72
   65
 73
    4
 40
9.25
 49
6
 49
-1.5
 49
0.25
 49
-1.5
  0
LTYPE
  2
double-dashed_dotted
 70
   64
  3
------   -----------   -   -----
 72
   65
 73
    6
 40
16.75
 49
6
 49
-1.5
 49
6
 49
-1.5
 49
0.25
 49
-1.5
  0
LTYPE
  2
dashed_double-dotted
 70
   64
  3
---------    -    -    ---------
 72
   65
 73
    6
 40
11
 49
6
 49
-1.5
 49
0.25
 49
-1.5
 49
0.25
 49
-1.5
  0
LTYPE
  2
double-dashed_double-dotted
 70
   64
  3
-----   ---------   -   -   ----
 72
   65
 73
    8
 40
18.5
 49
6
 49
-1.5
 49
6
 49
-1.5
 49
0.25
 49
-1.5
 49
0.25
 49
-1.5
  0
LTYPE
  2
dashed_triplicate-dotted
 70
   64
  3
-------    -    -    -    ------
 72
   65
 73
    8
 40
12.75
 49
6
 49
-1.5
 49
0.25
 49
-1.5
 49
0.25
 49
-1.5
 49
0.25
 49
-1.5
  0
LTYPE
  2
double-dashed_triplicate-dotted
 70
   64
  3
-----  ---------  -  -  -  -----
 72
   65
 73
   10
 40
20.25
 49
6
 49
-1.5
 49
6
 49
-1.5
 49
0.25
 49
-1.5
 49
0.25
 49
-1.5
 49
0.25
 49
-1.5
  0
LTYPE
  2
undefined
 70
   64
  3
--------------------------------
 72
   65
 73
    0
 40
0
  0
ENDTAB
  0
TABLE
  2
STYLE
  5
3
100
AcDbSymbolTable
 70
     1
  0
STYLE
  5
10
100
AcDbSymbolTableRecord
100
AcDbTextStyleTableRecord
  2
STANDARD
 70
     0
 40
0.0
 41
1.0
 50
0.0
 71
     0
 42
0.2
  3
txt
  4
bigfont.shx
  0
STYLE
  5
26
100
AcDbSymbolTableRecord
100
AcDbTextStyleTableRecord
  2
TATEGAKI
 70
    68
 40
0.0
 41
1.0
 50
0.0
 71
     0
 42
1.0
  3
txt
  4
bigfont.shx
  0
ENDTAB
  0
TABLE
  2
LAYER
 70
    2
  0
LAYER
  2
_0-0_
 70
   64
 62
    7
  6
CONTINUOUS
  0
LAYER
  2
ADD_LINE
 70
   64
 62
    7
  6
CONTINUOUS
  0
ENDTAB
  0
ENDSEC
  0
SECTION
  2
BLOCKS
  0
ENDSEC
  0
SECTION
  2
ENTITIES
  0
LINE
  8
_0-0_
  6
DASHED2
 62
    5
 10
1312.9815201445472
 20
277.53841782364952
 11
1414.9815201445472
 21
277.53841782364952
  0
LINE
  8
_0-0_
  6
CONTINUOUS
 62
    3
 10
1221.3905237354311
 20
923.19336704413809
 11
1492.5293914645763
 21
923.19336704413809
  0
LINE
  8
_0-0_
  6
CONTINUOUS
 62
    3
 10
1221.3905237354311
 20
917.19336704413809
 11
1221.3905237354311
 21
921.3933670441379
  0
TEXT
  8
_0-0_
 62
    7
 10
1151.8842344239665
 20
1264.5002826304321
 40
24
 41
1
 50
0
  1
Ａ
  0
LINE
  8
_0-0_
  6
CONTINUOUS
 62
    7
 10
672.13606690525205
 20
167.53106997205509
 11
1706.8525777203686
 21
167.53106997205509
  0
LINE
  8
_0-0_
  6
CONTINUOUS
 62
    7
 10
672.13606690525205
 20
1633.3565543671127
 11
672.13606690525205
 21
167.53106997205509
  0
LINE
  8
_0-0_
  6
CONTINUOUS
 62
    7
 10
1706.8525777203686
 20
1633.3565543671127
 11
1706.8525777203686
 21
167.53106997205509
  0
LINE
  8
_0-0_
  6
CONTINUOUS
 62
    4
 10
1029.5118440789911
 20
1219.6777431164805
 11
1021.3905237354312
 21
1211.5564227729205
  0
LINE
  8
_0-0_
  6
CONTINUOUS
 62
    7
 10
1016.3905237354312
 20
1267.2116347598671
 11
1016.3905237354312
 21
1221.6777431164805
  0
LINE
  8
_0-0_
  6
CONTINUOUS
 62
    7
 10
1031.9971254532293
 20
1213.6777431164805
 11
1160.7839220176329
 21
1213.6777431164805
  0
LINE
  8
_0-0_
  6
CONTINUOUS
 62
    4
 10
1163.2692033918729
 20
1219.6777431164805
 11
1177.3905237354311
 21
1205.5564227729215
  0
LINE
  8
_0-0_
  6
CONTINUOUS
 62
    7
 10
1160.7839220176329
 20
1213.6777431164805
 11
1171.3905237354311
 21
1203.0711413986824
  0
LINE
  8
_0-0_
  6
CONTINUOUS
 62
    7
 10
1031.9971254532293
 20
1213.6777431164805
 11
1021.3905237354312
 21
1203.0711413986824
  0
LINE
  8
_0-0_
  6
CONTINUOUS
 62
    4
 10
1021.3905237354312
 20
1203.0711413986824
 11
1021.3905237354312
 21
1211.5564227729205
  0
LINE
  8
_0-0_
  6
CONTINUOUS
 62
    7
 10
1023.3905237354312
 20
1300.0873825433769
 11
1025.3905237354311
 21
1301.0873825433769
  0
LINE
  8
_0-0_
  6
CONTINUOUS
 62
    7
 10
1023.3905237354312
 20
1300.0873825433769
 11
1023.3905237354312
 21
1267.2116347598671
  0
LINE
  8
_0-0_
  6
CONTINUOUS
 62
    7
 10
1023.3905237354312
 20
1307.0873825433769
 11
1023.3905237354312
 21
1301.0873825433769
  0
LINE
  8
_0-0_
  6
CONTINUOUS
 62
    7
 10
1025.3905237354311
 20
1301.0873825433769
 11
1023.3905237354312
 21
1301.0873825433769
  0
LINE
  8
_0-0_
  6
CONTINUOUS
 62
    7
 10
1009.3905237354312
 20
1292.1302146576022
 11
1009.3905237354312
 21
1269.2116347598671
  0
LINE
  8
_0-0_
  6
CONTINUOUS
 62
    7
 10
1009.3905237354312
 20
1292.1302146576022
 11
996.15602141485499
 21
1292.1302146576022
  0
LINE
  8
_0-0_
  6
CONTINUOUS
 62
    7
 10
999.15602141485499
 20
1279.2116347598671
 11
999.15602141485499
 21
1287.2116347598671
  0
LINE
  8
_0-0_
  6
CONTINUOUS
 62
    7
 10
972.92151909427878
 20
1278.2116347598671
 11
970.92151909427878
 21
1278.2116347598671
  0
LINE
  8
_0-0_
  6
CONTINUOUS
 62
    7
 10
972.92151909427878
 20
1269.2116347598671
 11
972.92151909427878
 21
1278.2116347598671
  0
LINE
  8
_0-0_
  6
CONTINUOUS
 62
    7
 10
970.92151909427878
 20
1267.2116347598671
 11
970.92151909427878
 21
1278.2116347598671
  0
LINE
  8
_0-0_
  6
CONTINUOUS
 62
    7
 10
970.92151909427878
 20
1267.2116347598671
 11
1021.3905237354312
 21
1267.2116347598671
  0
LINE
  8
_0-0_
  6
CONTINUOUS
 62
    7
 10
1021.3905237354312
 20
1269.2116347598671
 11
972.92151909427878
 21
1269.2116347598671
  0
LINE
  8
_0-0_
  6
CONTINUOUS
 62
    7
 10
965.39564892702504
 20
1267.2116347598671
 11
965.39564892702504
 21
1277.2116347598671
  0
LINE
  8
_0-0_
  6
CONTINUOUS
 62
    7
 10
963.39564892702504
 20
1265.2116347598671
 11
963.39564892702504
 21
1277.2116347598671
  0
LINE
  8
_0-0_
  6
CONTINUOUS
 62
    7
 10
965.39564892702504
 20
1277.2116347598671
 11
963.39564892702504
 21
1277.2116347598671
  0
LINE
  8
_0-0_
  6
CONTINUOUS
 62
    7
 10
1002.224079992956
 20
1324.0873825433769
 11
1144.4763153364574
 21
1324.0873825433769
  0
LINE
  8
_0-0_
  6
CONTINUOUS
 62
    7
 10
999.35822142713653
 20
1319.0873825433769
 11
1141.5895639905093
 21
1319.0873825433769
  0
LINE
  8
_0-0_
  6
CONTINUOUS
 62
    7
 10
1014.3905237354312
 20
1265.2116347598671
 11
963.39564892702504
 21
1265.2116347598671
  0
LINE
  8
_0-0_
  6
CONTINUOUS
 62
    7
 10
1016.3905237354312
 20
1267.2116347598671
 11
965.39564892702504
 21
1267.2116347598671
  0
LINE
  8
_0-0_
  6
CONTINUOUS
 62
    7
 10
1006.3905237354312
 20
1269.2116347598671
 11
1006.3905237354312
 21
1267.2116347598671
  0
LINE
  8
_0-0_
  6
CONTINUOUS
 62
    7
 10
1014.3905237354312
 20
1265.2116347598671
 11
1014.3905237354312
 21
1219.6777431164805
  0
LINE
  8
_0-0_
  6
CONTINUOUS
 62
    7
 10
1128.861733422923
 20
1219.6777431164805
 11
1014.3905237354312
 21
1219.6777431164805
  0
LINE
  8
_0-0_
  6
CONTINUOUS
 62
    7
 10
1128.861733422923
 20
1221.6777431164805
 11
1128.861733422923
 21
1219.6777431164805
  0
LINE
  8
_0-0_
  6
CONTINUOUS
 62
    7
 10
1107.9742215753658
 20
1221.6777431164805
 11
1119.9742215753658
 21
1221.6777431164805
  0
LINE
  8
_0-0_
  6
CONTINUOUS
 62
    7
 10
1119.9742215753658
 20
1239.2615585608251
 11
1119.9742215753658
 21
1221.6777431164805
  0
LINE
  8
_0-0_
  6
CONTINUOUS
 62
    7
 10
1023.3905237354312
 20
1265.1410823990468
 11
1117.9742215753658
 21
1239.7974569456869
  0
LINE
  8
_0-0_
  6
CONTINUOUS
 62
    7
 10
1117.9742215753658
 20
1239.7974569456869
 11
1117.9742215753658
 21
1223.6777431164805
  0
LINE
  8
_0-0_
  6
CONTINUOUS
 62
    7
 10
1107.9742215753658
 20
1223.6777431164805
 11
1107.9742215753658
 21
1221.6777431164805
  0
LINE
  8
_0-0_
  6
CONTINUOUS
 62
    7
 10
1117.9742215753658
 20
1223.6777431164805
 11
1107.9742215753658
 21
1223.6777431164805
  0
LINE
  8
_0-0_
  6
CONTINUOUS
 62
    7
 10
1033.3905237354311
 20
1223.6777431164805
 11
1033.3905237354311
 21
1221.6777431164805
  0
LINE
  8
_0-0_
  6
CONTINUOUS
 62
    7
 10
1033.3905237354311
 20
1221.6777431164805
 11
1021.3905237354312
 21
1221.6777431164805
  0
LINE
  8
_0-0_
  6
CONTINUOUS
 62
    7
 10
1033.3905237354311
 20
1223.6777431164805
 11
1023.3905237354312
 21
1223.6777431164805
  0
LINE
  8
_0-0_
  6
CONTINUOUS
 62
    7
 10
1021.3905237354312
 20
1267.2116347598671
 11
1021.3905237354312
 21
1221.6777431164805
  0
LINE
  8
_0-0_
  6
CONTINUOUS
 62
    7
 10
1023.3905237354312
 20
1265.1410823990468
 11
1023.3905237354312
 21
1223.6777431164805
  0
LINE
  8
_0-0_
  6
CONTINUOUS
 62
    1
 10
1045.0401656173772
 20
1284.4463663919992
 11
1051.7363652960166
 21
1285.0322079525863
  0
LINE
  8
_0-0_
  6
CONTINUOUS
 62
    1
 10
1039.1905237354304
 20
1297.9880667672501
 11
1045.4404412641898
 21
1298.5348636989888
  0
LINE
  8
_0-0_
  6
CONTINUOUS
 62
    1
 10
1051.4064730105465
 20
1307.0873825433769
 11
1052.1905237354304
 21
1307.1559780934335
  0
LINE
  8
_0-0_
  6
CONTINUOUS
 62
    1
 10
1052.1905237354304
 20
1289.6008265006808
 11
1052.1905237354304
 21
1289.619513412677
  0
LINE
  8
_0-0_
  6
CONTINUOUS
 62
    1
 10
1039.1905237354304
 20
1285.9422287167286
 11
1052.1905237354304
 21
1287.0795813425661
  0
LINE
  8
_0-0_
  6
CONTINUOUS
 62
    1
 10
1039.1905237354304
 20
1320.072103193203
 11
1052.1905237354304
 21
1321.2094558190397
  0
LINE
  8
_0-0_
  6
CONTINUOUS
 62
    1
 10
1039.1905237354304
 20
1318.0644635181166
 11
1052.1905237354304
 21
1319.2018161439532
  0
LINE
  8
_0-0_
  6
CONTINUOUS
 62
    1
 10
1039.1905237354304
 20
1295.9804270921627
 11
1052.1905237354304
 21
1297.1177797179994
  0
LINE
  8
_0-0_
  6
CONTINUOUS
 62
    1
 10
1039.1905237354304
 20
1308.0262651426824
 11
1052.1905237354304
 21
1309.16361776852
  0
LINE
  8
_0-0_
  6
CONTINUOUS
 62
    1
 10
1039.1905237354304
 20
1310.0339048177698
 11
1052.1905237354304
 21
1311.1712574436074
  0
LINE
  8
_0-0_
  6
CONTINUOUS
 62
    1
 10
1039.1905237354304
 20
1312.0415444928562
 11
1052.1905237354304
 21
1313.1788971186929
  0
LINE
  8
_0-0_
  6
CONTINUOUS
 62
    1
 10
1039.1905237354304
 20
1314.0491841679427
 11
1052.1905237354304
 21
1315.1865367937794
  0
LINE
  8
_0-0_
  6
CONTINUOUS
 62
    1
 10
1039.1905237354304
 20
1316.0568238430301
 11
1052.1905237354304
 21
1317.1941764688668
  0
LINE
  8
_0-0_
  6
CONTINUOUS
 62
    1
 10
1039.1905237354304
 20
1322.0797428682904
 11
1052.1905237354304
 21
1323.2170954941271
  0
LINE
  8
_0-0_
  6
CONTINUOUS
 62
    1
 10
1039.1905237354304
 20
1293.9727874170762
 11
1052.1905237354304
 21
1295.1101400429129
  0
LINE
  8
_0-0_
  6
CONTINUOUS
 62
    1
 10
1039.1905237354304
 20
1291.9651477419898
 11
1052.1905237354304
 21
1293.1025003678265
  0
LINE
  8
_0-0_
  6
CONTINUOUS
 62
    1
 10
1039.1905237354304
 20
1289.9575080669024
 11
1052.1905237354304
 21
1291.09486069274
  0
LINE
  8
_0-0_
  6
CONTINUOUS
 62
    1
 10
1039.1905237354304
 20
1287.949868391815
 11
1052.1905237354304
 21
1289.0872210176526
  0
LINE
  8
_0-0_
  6
CONTINUOUS
 62
    7
 10
1023.3905237354312
 20
1307.0873825433769
 11
1067.9905237354296
 21
1307.0873825433769
  0
LINE
  8
_0-0_
  6
CONTINUOUS
 62
    7
 10
1021.3905237354312
 20
1309.0873825433769
 11
1069.9905237354296
 21
1309.0873825433769
  0
LINE
  8
_0-0_
  6
CONTINUOUS
 62
    1
 10
1040.2305237354294
 20
1284.4463663919992
 11
1039.1905237354304
 21
1285.4863663919982
  0
LINE
  8
_0-0_
  6
CONTINUOUS
 62
    1
 10
1051.1505237354295
 20
1284.4463663919992
 11
1052.1905237354304
 21
1285.486366392
  0
LINE
  8
_0-0_
  6
CONTINUOUS
 62
    1
 10
1052.1905237354304
 20
1285.486366392
 11
1052.1905237354304
 21
1298.5333825433768
  0
LINE
  8
_0-0_
  6
CONTINUOUS
 62
    1
 10
1039.1905237354304
 20
1298.5333825433768
 11
1039.1905237354304
 21
1285.4863663919982
  0
LINE
  8
_0-0_
  6
CONTINUOUS
 62
    1
 10
1040.2305237354294
 20
1284.4463663919992
 11
1051.1505237354295
 21
1284.4463663919992
  0
LINE
  8
_0-0_
  6
CONTINUOUS
 62
    1
 10
1051.1505237354295
 20
1298.5333825433768
 11
1051.1505237354295
 21
1284.4463663919992
  0
LINE
  8
_0-0_
  6
CONTINUOUS
 62
    1
 10
1040.2305237354294
 20
1298.5333825433768
 11
1040.2305237354294
 21
1284.4463663919992
  0
LINE
  8
_0-0_
  6
CONTINUOUS
 62
    1
 10
1052.1905237354304
 20
1307.0873825433769
 11
1052.1905237354304
 21
1324.0873825433769
  0
LINE
  8
_0-0_
  6
CONTINUOUS
 62
    1
 10
1051.1505237354295
 20
1324.0873825433769
 11
1051.1505237354295
 21
1307.0873825433769
  0
LINE
  8
_0-0_
  6
CONTINUOUS
 62
    1
 10
1040.2305237354294
 20
1324.0873825433769
 11
1040.2305237354294
 21
1307.0873825433769
  0
LINE
  8
_0-0_
  6
CONTINUOUS
 62
    1
 10
1039.1905237354304
 20
1324.0873825433769
 11
1039.1905237354304
 21
1307.0873825433769
  0
LINE
  8
_0-0_
  6
CONTINUOUS
 62
    1
 10
1058.4499646845188
 20
1307.0873825433769
 11
1032.9310827863383
 21
1307.0873825433769
  0
LINE
  8
_0-0_
  6
CONTINUOUS
 62
    1
 10
1058.4499646845188
 20
1299.5203287354984
 11
1058.4499646845188
 21
1307.0873825433769
  0
LINE
  8
_0-0_
  6
CONTINUOUS
 62
    1
 10
1056.7405237354296
 20
1298.5333825433768
 11
1058.4499646845188
 21
1299.5203287354984
  0
LINE
  8
_0-0_
  6
CONTINUOUS
 62
    1
 10
1034.6405237354311
 20
1298.5333825433768
 11
1056.7405237354296
 21
1298.5333825433768
  0
LINE
  8
_0-0_
  6
CONTINUOUS
 62
    1
 10
1032.9310827863383
 20
1299.5203287354984
 11
1034.6405237354311
 21
1298.5333825433768
  0
LINE
  8
_0-0_
  6
CONTINUOUS
 62
    1
 10
1032.9310827863383
 20
1307.0873825433769
 11
1032.9310827863383
 21
1299.5203287354984
  0
LINE
  8
_0-0_
  6
CONTINUOUS
 62
    1
 10
1052.0702442099764
 20
1299.5203287354984
 11
1056.7405237354296
 21
1298.5333825433768
  0
ARC
  8
_0-0_
  6
CONTINUOUS
 62
    1
 10
1045.6905237354304
 20
1319.6464363512555
 40
21.113053807878593
 50
252.41204622600637
 51
287.5879537739936
  0
LINE
  8
_0-0_
  6
CONTINUOUS
 62
    1
 10
1034.6405237354311
 20
1298.5333825433768
 11
1039.3108032608843
 21
1299.5203287354984
  0
LINE
  8
_0-0_
  6
CONTINUOUS
 62
    1
 10
1052.0702442099764
 20
1299.5203287354984
 11
1052.0702442099764
 21
1307.0873825433769
  0
LINE
  8
_0-0_
  6
CONTINUOUS
 62
    1
 10
1039.3108032608843
 20
1307.0873825433769
 11
1039.3108032608843
 21
1299.5203287354984
  0
LINE
  8
_0-0_
  6
CONTINUOUS
 62
    7
 10
1069.9905237354296
 20
1309.0873825433769
 11
1069.9905237354296
 21
1299.0873825433769
  0
LINE
  8
_0-0_
  6
CONTINUOUS
 62
    7
 10
1067.9905237354296
 20
1307.0873825433769
 11
1067.9905237354296
 21
1301.0873825433769
  0
LINE
  8
_0-0_
  6
CONTINUOUS
 62
    7
 10
1065.9905237354296
 20
1301.0873825433769
 11
1067.9905237354296
 21
1301.0873825433769
  0
LINE
  8
_0-0_
  6
CONTINUOUS
 62
    7
 10
1069.9905237354296
 20
1299.0873825433769
 11
1065.9905237354296
 21
1301.0873825433769
  0
LINE
  8
_0-0_
  6
CONTINUOUS
 62
    7
 10
1059.9905237354296
 20
1319.0873825433769
 11
1059.9905237354296
 21
1309.0873825433769
  0
LINE
  8
_0-0_
  6
CONTINUOUS
 62
    7
 10
1031.3905237354311
 20
1319.0873825433769
 11
1031.3905237354311
 21
1309.0873825433769
  0
LINE
  8
_0-0_
  6
CONTINUOUS
 62
    1
 10
1039.3108032608843
 20
1335.5804363512548
 11
1034.6405237354311
 21
1336.5673825433764
  0
LINE
  8
_0-0_
  6
CONTINUOUS
 62
    1
 10
1058.4499646845188
 20
1335.5804363512548
 11
1032.9310827863401
 21
1335.5804363512548
  0
LINE
  8
_0-0_
  6
CONTINUOUS
 62
    1
 10
1034.6405237354311
 20
1336.5673825433764
 11
1032.9310827863401
 21
1335.5804363512548
  0
LINE
  8
_0-0_
  6
CONTINUOUS
 62
    1
 10
1039.3108032608843
 20
1335.5804363512548
 11
1039.3108032608843
 21
1326.1673825433777
  0
LINE
  8
_0-0_
  6
CONTINUOUS
 62
    1
 10
1032.9310827863401
 20
1335.5804363512548
 11
1032.9310827863401
 21
1326.1673825433777
  0
LINE
  8
_0-0_
  6
CONTINUOUS
 62
    1
 10
1031.3905237354311
 20
1326.1673825433777
 11
1031.3905237354311
 21
1324.0873825433769
  0
LINE
  8
_0-0_
  6
CONTINUOUS
 62
    1
 10
1038.8655237354296
 20
1324.0873825433769
 11
1038.8655237354296
 21
1326.1673825433777
  0
LINE
  8
_0-0_
  6
CONTINUOUS
 62
    1
 10
1031.3905237354311
 20
1326.1673825433777
 11
1059.9905237354296
 21
1326.1673825433777
  0
LINE
  8
_0-0_
  6
CONTINUOUS
 62
    1
 10
1059.9905237354296
 20
1324.0873825433769
 11
1031.3905237354311
 21
1324.0873825433769
  0
LINE
  8
_0-0_
  6
CONTINUOUS
 62
    1
 10
1059.9905237354296
 20
1326.1673825433777
 11
1059.9905237354296
 21
1324.0873825433769
  0
LINE
  8
_0-0_
  6
CONTINUOUS
 62
    1
 10
1058.4499646845188
 20
1335.5804363512548
 11
1056.7405237354296
 21
1336.5673825433764
  0
LINE
  8
_0-0_
  6
CONTINUOUS
 62
    1
 10
1058.4499646845188
 20
1326.1673825433777
 11
1058.4499646845188
 21
1335.5804363512548
  0
LINE
  8
_0-0_
  6
CONTINUOUS
 62
    1
 10
1032.9310827863383
 20
1326.1673825433777
 11
1058.4499646845188
 21
1326.1673825433777
  0
LINE
  8
_0-0_
  6
CONTINUOUS
 62
    1
 10
1056.7405237354296
 20
1336.5673825433764
 11
1034.6405237354311
 21
1336.5673825433764
  0
LINE
  8
_0-0_
  6
CONTINUOUS
 62
    1
 10
1056.7405237354296
 20
1336.5673825433764
 11
1052.0702442099764
 21
1335.5804363512548
  0
LINE
  8
_0-0_
  6
CONTINUOUS
 62
    1
 10
1052.0702442099764
 20
1326.1673825433777
 11
1052.0702442099764
 21
1335.5804363512548
  0
LINE
  8
_0-0_
  6
CONTINUOUS
 62
    1
 10
1052.5155237354311
 20
1324.0873825433769
 11
1052.5155237354311
 21
1326.1673825433777
  0
ARC
  8
_0-0_
  6
CONTINUOUS
 62
    1
 10
1045.6905237354304
 20
1315.4543287354977
 40
21.113053807878593
 50
72.412046226006396
 51
107.5879537739936
  0
LINE
  8
_0-0_
  6
CONTINUOUS
 62
    7
 10
1144.4763153364574
 20
1324.0873825433769
 11
1165.9196910094315
 21
1286.9463663919992
  0
LINE
  8
_0-0_
  6
CONTINUOUS
 62
    7
 10
1161.5895639905093
 20
1284.4463663919992
 11
1165.9196910094315
 21
1286.9463663919992
  0
LINE
  8
_0-0_
  6
CONTINUOUS
 62
    7
 10
1141.5895639905093
 20
1319.0873825433769
 11
1161.5895639905093
 21
1284.4463663919992
  0
LINE
  8
_0-0_
  6
CONTINUOUS
 62
    7
 10
1021.3905237354312
 20
1309.0873825433769
 11
1021.3905237354312
 21
1269.2116347598671
  0
LINE
  8
_0-0_
  6
CONTINUOUS
 62
    2
 10
988.33055621576852
 20
1264.7179655323348
 11
982.08055621576852
 21
1264.7179655323348
  0
LINE
  8
_0-0_
  6
CONTINUOUS
 62
    7
 10
1119.9742215753658
 20
1239.2615585608251
 11
1200.2046248754168
 21
1217.7638867881528
  0
LINE
  8
_0-0_
  6
CONTINUOUS
 62
    7
 10
1200.2046248754168
 20
1217.7638867881528
 11
1200.2046248754168
 21
1187.7638867881528
  0
LINE
  8
_0-0_
  6
CONTINUOUS
 62
    7
 10
1023.3905237354312
 20
1267.2116347598671
 11
1202.2046248754168
 21
1219.2985407641104
  0
LINE
  8
_0-0_
  6
CONTINUOUS
 62
    7
 10
1202.2046248754168
 20
1219.2985407641104
 11
1202.2046248754168
 21
1187.7638867881528
  0
LINE
  8
_0-0_
  6
CONTINUOUS
 62
    7
 10
1200.2046248754168
 20
1187.7638867881528
 11
1202.2046248754168
 21
1187.7638867881528
  0
LINE
  8
_0-0_
  6
CONTINUOUS
 62
    1
 10
1053.0699298865611
 20
1234.5488848397813
 11
1053.0699298865611
 21
1156.9748320812964
  0
LINE
  8
_0-0_
  6
CONTINUOUS
 62
    1
 10
1066.0699298865611
 20
1156.9748320812973
 11
1066.0699298865611
 21
1234.5488848397813
  0
ARC
  8
_0-0_
  6
CONTINUOUS
 62
    1
 10
1056.3199298865611
 20
1232.5488848397813
 40
3.8160843806184368
 50
31.607502246248899
 51
148.39249775375112
  0
ARC
  8
_0-0_
  6
CONTINUOUS
 62
    1
 10
1062.8199298865611
 20
1236.5488848397813
 40
3.8160843806184368
 50
211.60750224624888
 51
328.39249775375112
  0
ARC
  8
_0-0_
  6
CONTINUOUS
 62
    1
 10
1062.8199298865611
 20
1232.5488848397813
 40
3.8160843806184368
 50
31.607502246248899
 51
148.39249775375112
  0
LINE
  8
_0-0_
  6
CONTINUOUS
 62
    1
 10
1065.0299298865621
 20
1233.4378721429262
 11
1065.0299298865621
 21
1155.9348320812974
  0
ARC
  8
_0-0_
  6
CONTINUOUS
 62
    1
 10
1056.3199298865611
 20
1154.9748320812964
 40
3.8160843806184368
 50
31.607502246248899
 51
148.39249775375112
  0
ARC
  8
_0-0_
  6
CONTINUOUS
 62
    1
 10
1062.8199298865611
 20
1158.9748320812964
 40
3.8160843806184368
 50
211.60750224624888
 51
328.39249775376271
  0
ARC
  8
_0-0_
  6
CONTINUOUS
 62
    1
 10
1056.3199298865611
 20
1158.9748320812964
 40
3.8160843806184368
 50
211.60750224624888
 51
328.39249775375112
  0
LINE
  8
_0-0_
  6
CONTINUOUS
 62
    1
 10
1054.1099298865602
 20
1235.5888848397803
 11
1054.1099298865602
 21
1158.0858447781516
  0
LINE
  8
_0-0_
  6
CONTINUOUS
 62
    7
 10
1016.3905237354312
 20
1221.6777431164805
 11
1128.861733422923
 21
1221.6777431164805
  0
LINE
  8
_0-0_
  6
CONTINUOUS
 62
    7
 10
1171.3905237354311
 20
1203.0711413986824
 11
1171.3905237354311
 21
917.19336704413809
  0
LINE
  8
_0-0_
  6
CONTINUOUS
 62
    7
 10
1363.6383510887763
 20
924.69336704413809
 11
1423.3962960793551
 21
1028.1971639237267
  0
POINT
  8
_0-0_
 62
    7
 10
1363.6383510887763
 20
924.69336704413809
  0
LINE
  8
_0-0_
  6
CONTINUOUS
 62
    4
 10
1177.3905237354311
 20
1205.5564227729215
 11
1177.3905237354311
 21
932.19336704413809
  0
CIRCLE
  8
_0-0_
  6
CONTINUOUS
 62
    7
 10
1188.5626179942192
 20
1208.830660713973
 40
11.642006881197926
  0
LINE
  8
_0-0_
  6
CONTINUOUS
 62
    2
 10
1200.2046248754168
 20
1187.7638867881533
 11
1200.2046248754168
 21
1187.7638867881533
  0
LINE
  8
_0-0_
  6
CONTINUOUS
 62
    2
 10
1200.2046248754168
 20
1187.7638867881533
 11
1195.066299010015
 21
1188.6917447614878
  0
LINE
  8
_0-0_
  6
CONTINUOUS
 62
    2
 10
1195.066299010015
 20
1188.6917447614878
 11
1189.7375011165921
 21
1189.0701499336506
  0
LINE
  8
_0-0_
  6
CONTINUOUS
 62
    2
 10
1189.7375011165921
 20
1189.0701499336506
 11
1184.3801440226375
 21
1188.8876046549674
  0
LINE
  8
_0-0_
  6
CONTINUOUS
 62
    2
 10
1184.3801440226375
 20
1188.8876046549674
 11
1179.157008312498
 21
1188.1496554713588
  0
LINE
  8
_0-0_
  6
CONTINUOUS
 62
    2
 10
1179.157008312498
 20
1188.1496554713588
 11
1177.3905237354311
 21
1187.7638867881533
  0
LINE
  8
_0-0_
  6
CONTINUOUS
 62
    2
 10
1198.8943732571706
 20
1188.0570073795266
 11
1200.2046248754168
 21
1189.3672589977723
  0
LINE
  8
_0-0_
  6
CONTINUOUS
 62
    2
 10
1196.5001649763853
 20
1188.491226223487
 11
1200.2046248754168
 21
1192.195686122519
  0
LINE
  8
_0-0_
  6
CONTINUOUS
 62
    2
 10
1193.9941988443034
 20
1188.8136872161508
 11
1200.2046248754168
 21
1195.0241132472647
  0
LINE
  8
_0-0_
  6
CONTINUOUS
 62
    2
 10
1191.3664242746399
 20
1189.0143397712336
 11
1200.2046248754168
 21
1197.8525403720109
  0
LINE
  8
_0-0_
  6
CONTINUOUS
 62
    2
 10
1188.6020463911254
 20
1189.0783890124644
 11
1200.2046248754177
 21
1200.6809674967576
  0
LINE
  8
_0-0_
  6
CONTINUOUS
 62
    2
 10
1185.6789669326417
 20
1188.9837366787278
 11
1200.2046248754186
 21
1203.5093946215043
  0
LINE
  8
_0-0_
  6
CONTINUOUS
 62
    2
 10
1182.5627689736566
 20
1188.6959658444889
 11
1191.4087028230379
 21
1197.5418996938693
  0
LINE
  8
_0-0_
  6
CONTINUOUS
 62
    2
 10
1199.8513790143243
 20
1205.9845758851566
 11
1200.2046248754168
 21
1206.3378217462496
  0
LINE
  8
_0-0_
  6
CONTINUOUS
 62
    2
 10
1179.195662335419
 20
1188.1572863309975
 11
1188.2317329369862
 21
1197.1933569325656
  0
LINE
  8
_0-0_
  6
CONTINUOUS
 62
    2
 10
1177.3905237354311
 20
1189.1805748557563
 11
1185.7447677051423
 21
1197.534818825467
  0
LINE
  8
_0-0_
  6
CONTINUOUS
 62
    2
 10
1177.3905237354311
 20
1192.0090019805025
 11
1183.6550805652196
 21
1198.2735588102905
  0
LINE
  8
_0-0_
  6
CONTINUOUS
 62
    2
 10
1177.3905237354311
 20
1194.8374291052478
 11
1181.8627946858041
 21
1199.3097000556213
  0
LINE
  8
_0-0_
  6
CONTINUOUS
 62
    2
 10
1177.390523735432
 20
1197.6658562299954
 11
1180.3268319014087
 21
1200.6021643959725
  0
LINE
  8
_0-0_
  6
CONTINUOUS
 62
    2
 10
1177.3905237354293
 20
1200.4942833547402
 11
1179.0356387827705
 21
1202.139398402081
  0
LINE
  8
_0-0_
  6
CONTINUOUS
 62
    2
 10
1177.3905237354293
 20
1203.3227104794855
 11
1178.0008933230583
 21
1203.9330800671146
  0
LINE
  8
_0-0_
  6
CONTINUOUS
 62
    7
 10
1009.3905237354312
 20
1294.1302146576022
 11
983.15602141485499
 21
1294.1302146576022
  0
LINE
  8
_0-0_
  6
CONTINUOUS
 62
    7
 10
996.15602141485499
 20
1292.1302146576022
 11
983.15602141485499
 21
1292.1302146576022
  0
LINE
  8
_0-0_
  6
CONTINUOUS
 62
    7
 10
983.15602141485499
 20
1294.1302146576022
 11
983.15602141485499
 21
1292.1302146576022
  0
LINE
  8
_0-0_
  6
CONTINUOUS
 62
    7
 10
1009.3905237354312
 20
1294.1302146576022
 11
1009.3905237354312
 21
1292.1302146576022
  0
LINE
  8
_0-0_
  6
CONTINUOUS
 62
    7
 10
1009.3905237354312
 20
1309.0873825433769
 11
1021.3905237354312
 21
1309.0873825433769
  0
LINE
  8
_0-0_
  6
CONTINUOUS
 62
    7
 10
1009.3905237354312
 20
1269.2116347598671
 11
1009.3905237354312
 21
1309.0873825433769
  0
LINE
  8
_0-0_
  6
CONTINUOUS
 62
    7
 10
1009.3905237354312
 20
1309.0873825433769
 11
1021.3905237354312
 21
1269.2116347598671
  0
LINE
  8
_0-0_
  6
CONTINUOUS
 62
    7
 10
1021.3905237354312
 20
1309.0873825433769
 11
1009.3905237354312
 21
1269.2116347598671
  0
LINE
  8
_0-0_
  6
CONTINUOUS
 62
    7
 10
999.15602141485499
 20
1274.2116347598671
 11
983.15602141485499
 21
1274.2116347598671
  0
LINE
  8
_0-0_
  6
CONTINUOUS
 62
    7
 10
983.15602141485499
 20
1274.2116347598671
 11
983.15602141485499
 21
1269.2116347598671
  0
LINE
  8
_0-0_
  6
CONTINUOUS
 62
    7
 10
999.15602141485499
 20
1279.2116347598671
 11
999.15602141485499
 21
1269.2116347598671
  0
LINE
  8
_0-0_
  6
CONTINUOUS
 62
    7
 10
994.15602141485499
 20
1279.2116347598671
 11
999.15602141485499
 21
1274.2116347598671
  0
LINE
  8
_0-0_
  6
CONTINUOUS
 62
    7
 10
999.15602141485499
 20
1279.2116347598671
 11
994.15602141485499
 21
1274.2116347598671
  0
LINE
  8
_0-0_
  6
CONTINUOUS
 62
    7
 10
999.15602141485499
 20
1287.2116347598671
 11
999.15602141485499
 21
1292.1302146576022
  0
LINE
  8
_0-0_
  6
CONTINUOUS
 62
    7
 10
994.15602141485499
 20
1292.1302146576022
 11
994.15602141485499
 21
1287.2116347598671
  0
LINE
  8
_0-0_
  6
CONTINUOUS
 62
    7
 10
994.15602141485499
 20
1279.2116347598671
 11
994.15602141485499
 21
1274.2116347598671
  0
LINE
  8
_0-0_
  6
CONTINUOUS
 62
    7
 10
994.15602141485499
 20
1292.1302146576022
 11
999.15602141485499
 21
1287.2116347598671
  0
LINE
  8
_0-0_
  6
CONTINUOUS
 62
    7
 10
994.15602141485499
 20
1287.2116347598671
 11
999.15602141485499
 21
1292.1302146576022
  0
LINE
  8
_0-0_
  6
CONTINUOUS
 62
    7
 10
1371.3905237354311
 20
737.19336704413809
 11
1492.5293914645763
 21
737.19336704413809
  0
LINE
  8
_0-0_
  6
CONTINUOUS
 62
    7
 10
1171.3905237354311
 20
917.19336704413809
 11
1492.5293914645763
 21
917.19336704413809
  0
LINE
  8
_0-0_
  6
CONTINUOUS
 62
    4
 10
1177.3905237354311
 20
932.19336704413809
 11
1492.5293914645763
 21
932.19336704413809
  0
LINE
  8
_0-0_
  6
CONTINUOUS
 62
    7
 10
1021.3905237354312
 20
882.65615352542227
 11
1171.3905237354329
 21
1032.6561535254232
  0
LINE
  8
_0-0_
  6
CONTINUOUS
 62
    7
 10
1021.3905237354312
 20
889.72722133728712
 11
1171.3905237354311
 21
1039.7272213372871
  0
LINE
  8
_0-0_
  6
CONTINUOUS
 62
    7
 10
1021.3905237354312
 20
896.79828914915288
 11
1171.3905237354311
 21
1046.7982891491529
  0
LINE
  8
_0-0_
  6
CONTINUOUS
 62
    7
 10
1021.3905237354312
 20
1108.9303235051175
 11
1126.1379433467928
 21
1213.6777431164796
  0
LINE
  8
_0-0_
  6
CONTINUOUS
 62
    7
 10
1021.3905237354321
 20
1116.0013913169837
 11
1119.0668755349279
 21
1213.6777431164796
  0
LINE
  8
_0-0_
  6
CONTINUOUS
 62
    7
 10
1021.3905237354312
 20
1123.0724591288481
 11
1111.9958077230631
 21
1213.6777431164796
  0
LINE
  8
_0-0_
  6
CONTINUOUS
 62
    4
 10
1029.5118440789911
 20
1219.6777431164805
 11
1163.2692033918729
 21
1219.6777431164805
  0
TEXT
  8
_0-0_
 62
    7
 10
1427.5860186784012
 20
1015.9100394532479
 40
30
 41
1
 50
0
  1
防水層
  0
LINE
  8
_0-0_
  6
CONTINUOUS
 62
    7
 10
1192.3983223422574
 20
1191.6621457494884
 11
1265.5739227997447
 21
1318.4060036162173
  0
POINT
  8
_0-0_
 62
    7
 10
1192.3983223422574
 20
1191.6621457494884
  0
TEXT
  8
_0-0_
 62
    7
 10
1270.454532812555
 20
1303.7992368476621
 40
30
 41
1
 50
0
  1
ｼｰﾘﾝｸﾞ
  0
ARC
  8
_0-0_
  6
CONTINUOUS
 62
    7
 10
681.61232262816623
 20
1134.6217906686566
 40
367.40986757197703
 50
30.137066432173206
 51
53.125752717063492
  0
ARC
  8
_0-0_
  6
CONTINUOUS
 62
    7
 10
681.61232262816623
 20
1134.6217906686566
 40
372.40986757197703
 50
30.580973923580547
 51
53.700633007173977
  0
LINE
  8
_0-0_
  6
CONTINUOUS
 62
    7
 10
999.15602141485499
 20
1287.2116347598671
 11
902.08055621576852
 21
1287.2116347598671
  0
LINE
  8
_0-0_
  6
CONTINUOUS
 62
    7
 10
999.15602141485499
 20
1279.2116347598671
 11
902.08055621576852
 21
1279.2116347598671
  0
LINE
  8
_0-0_
  6
CONTINUOUS
 62
    2
 10
982.08055621576852
 20
1264.7179655323348
 11
982.08055621576852
 21
677.19336704413809
  0
LINE
  8
_0-0_
  6
CONTINUOUS
 62
    2
 10
988.33055621576852
 20
1264.7179655323348
 11
988.33055621576852
 21
677.19336704413809
  0
LINE
  8
_0-0_
  6
CONTINUOUS
 62
    2
 10
985.20555621576852
 20
1264.7179655323348
 11
985.20555621576852
 21
677.19336704413809
  0
LINE
  8
_0-0_
  6
CONTINUOUS
 62
    7
 10
1021.3905237354312
 20
1203.0711413986824
 11
1021.3905237354312
 21
677.19336704413809
  0
LINE
  8
_0-0_
  6
CONTINUOUS
 62
    7
 10
1042.2019072338426
 20
677.19336704413809
 11
1282.2019072338435
 21
917.19336704413899
  0
LINE
  8
_0-0_
  6
CONTINUOUS
 62
    7
 10
1035.1308394219777
 20
677.19336704413809
 11
1275.1308394219768
 21
917.19336704413854
  0
LINE
  8
_0-0_
  6
CONTINUOUS
 62
    7
 10
1028.0597716101111
 20
677.19336704413809
 11
1268.059771610112
 21
917.19336704413809
  0
LINE
  8
_0-0_
  6
CONTINUOUS
 62
    7
 10
1254.3339415898063
 20
677.19336704413809
 11
1492.5293914645763
 21
915.38881691890629
  0
LINE
  8
_0-0_
  6
CONTINUOUS
 62
    7
 10
1261.4050094016729
 20
677.19336704413809
 11
1492.5293914645763
 21
908.31774910704235
  0
LINE
  8
_0-0_
  6
CONTINUOUS
 62
    7
 10
1268.4760772135378
 20
677.19336704413809
 11
1492.5293914645772
 21
901.2466812951775
  0
LINE
  8
_0-0_
  6
CONTINUOUS
 62
    7
 10
1371.3905237354311
 20
737.19336704413809
 11
1371.3905237354311
 21
677.19336704413809
  0
LINE
  8
_0-0_
  6
CONTINUOUS
 62
    7
 10
672.13606690525205
 20
567.53106997205487
 11
1706.8525777203686
 21
567.53106997205487
  0
LINE
  8
_0-0_
  6
CONTINUOUS
 62
    7
 10
672.13606690525205
 20
627.53106997205487
 11
1706.8525777203686
 21
627.53106997205487
  0
LINE
  8
_0-0_
  6
CONTINUOUS
 62
    7
 10
1189.4943223128103
 20
627.53106997205487
 11
1189.4943223128103
 21
167.53106997205509
  0
TEXT
  8
_0-0_
 62
    7
 10
907.51017276561663
 20
579.41681012899835
 40
40
 41
1
 50
0
  1
Ａ
  0
TEXT
  8
_0-0_
 62
    7
 10
1430.4669144508225
 20
579.76428888146393
 40
40
 41
1
 50
0
  1
Ｂ
  0
LINE
  8
_0-0_
  6
CONTINUOUS
 62
    2
 10
931.0049702204343
 20
410.4636924245392
 11
932.37830179260175
 21
411.83702399670119
  0
LINE
  8
_0-0_
  6
CONTINUOUS
 62
    2
 10
931.0049702204343
 20
404.09973139386284
 11
934.70647907695832
 21
407.80124025037776
  0
LINE
  8
_0-0_
  6
CONTINUOUS
 62
    2
 10
931.00497022044158
 20
397.73577036318284
 11
937.61166359388892
 21
404.34246373663746
  0
LINE
  8
_0-0_
  6
CONTINUOUS
 62
    2
 10
931.00497022044158
 20
391.37180933250283
 11
941.06757985878187
 21
401.43441897084313
  0
LINE
  8
_0-0_
  6
CONTINUOUS
 62
    2
 10
931.00497022044158
 20
385.00784830182647
 11
945.10022308746568
 21
399.10310116884693
  0
LINE
  8
_0-0_
  6
CONTINUOUS
 62
    2
 10
931.00497022044158
 20
378.64388727114647
 11
949.80201915228656
 21
397.44093620299509
  0
LINE
  8
_0-0_
  6
CONTINUOUS
 62
    2
 10
935.06653207041029
 20
376.34148809043882
 11
955.39769092393738
 21
396.6726469439659
  0
LINE
  8
_0-0_
  6
CONTINUOUS
 62
    2
 10
981.541894597951
 20
416.4528895872977
 11
982.33669778540946
 21
417.2476927747598
  0
LINE
  8
_0-0_
  6
CONTINUOUS
 62
    2
 10
942.64252200644489
 20
377.55351699579523
 11
962.54587316755362
 21
397.45686815690215
  0
LINE
  8
_0-0_
  6
CONTINUOUS
 62
    2
 10
949.65396741416237
 20
378.20100137283089
 11
982.33669778540946
 21
410.88373174407798
  0
LINE
  8
_0-0_
  6
CONTINUOUS
 62
    2
 10
956.23089619574978
 20
378.41396912374012
 11
982.33669778540946
 21
404.51977071339979
  0
LINE
  8
_0-0_
  6
CONTINUOUS
 62
    2
 10
962.45074643366036
 20
378.26985833096887
 11
982.33669778540946
 21
398.15580968271797
  0
LINE
  8
_0-0_
  6
CONTINUOUS
 62
    2
 10
968.36323921540509
 20
377.8183900820336
 11
982.33669778540946
 21
391.79184865203979
  0
LINE
  8
_0-0_
  6
CONTINUOUS
 62
    2
 10
974.00166301258662
 20
377.09285284854423
 11
982.33669778540946
 21
385.42788762136342
  0
LINE
  8
_0-0_
  6
CONTINUOUS
 62
    2
 10
979.38863164435327
 20
376.11586044962905
 11
982.33669778540946
 21
379.06392659068342
  0
LINE
  8
_0-0_
  6
CONTINUOUS
 62
    2
 10
982.33669778540946
 20
375.45633911904213
 11
982.33669778540946
 21
375.45633911904213
  0
LINE
  8
_0-0_
  6
CONTINUOUS
 62
    2
 10
982.33669778540946
 20
375.45633911904213
 11
970.77546458825543
 21
377.5440195590453
  0
LINE
  8
_0-0_
  6
CONTINUOUS
 62
    2
 10
970.77546458825543
 20
377.5440195590453
 11
958.78566932805359
 21
378.39543119641144
  0
LINE
  8
_0-0_
  6
CONTINUOUS
 62
    2
 10
958.78566932805359
 20
378.39543119641144
 11
946.73161586665617
 21
377.98470431937426
  0
LINE
  8
_0-0_
  6
CONTINUOUS
 62
    2
 10
946.73161586665617
 20
377.98470431937426
 11
934.97956051884205
 21
376.32431865625472
  0
LINE
  8
_0-0_
  6
CONTINUOUS
 62
    2
 10
934.97956051884205
 20
376.32431865625472
 11
931.00497022044158
 21
375.45633911904213
  0
CIRCLE
  8
_0-0_
  6
CONTINUOUS
 62
    7
 10
956.14218230271774
 20
422.8565804521354
 40
26.194515482695333
  0
LINE
  8
_0-0_
  6
CONTINUOUS
 62
    7
 10
982.33669778540946
 20
375.45633911903906
 11
986.83669778540946
 21
375.45633911903906
  0
LINE
  8
_0-0_
  6
CONTINUOUS
 62
    7
 10
986.83669778540946
 20
446.40931056494674
 11
986.83669778540946
 21
375.45633911903906
  0
LINE
  8
_0-0_
  6
CONTINUOUS
 62
    7
 10
982.33669778540946
 20
442.95633911903906
 11
982.33669778540946
 21
375.45633911903906
  0
LINE
  8
_0-0_
  6
CONTINUOUS
 62
    7
 10
801.81829036029569
 20
491.32610060755223
 11
982.33669778540946
 21
442.95633911903906
  0
LINE
  8
_0-0_
  6
CONTINUOUS
 62
    7
 10
797.31829036029569
 20
456.262515857778
 11
774.81829036029569
 21
456.262515857778
  0
LINE
  8
_0-0_
  6
CONTINUOUS
 62
    7
 10
774.81829036029569
 20
456.262515857778
 11
774.81829036029569
 21
451.762515857778
  0
LINE
  8
_0-0_
  6
CONTINUOUS
 62
    7
 10
797.31829036029569
 20
492.53187197349189
 11
797.31829036029569
 21
456.262515857778
  0
LINE
  8
_0-0_
  6
CONTINUOUS
 62
    7
 10
801.81829036029569
 20
491.32610060755223
 11
801.81829036029569
 21
451.762515857778
  0
LINE
  8
_0-0_
  6
CONTINUOUS
 62
    7
 10
774.81829036029569
 20
451.762515857778
 11
801.81829036029569
 21
451.762515857778
  0
LINE
  8
_0-0_
  6
CONTINUOUS
 62
    7
 10
821.81519201729509
 20
451.762515857778
 11
821.81519201729509
 21
447.262515857778
  0
LINE
  8
_0-0_
  6
CONTINUOUS
 62
    7
 10
893.64011635539657
 20
433.762515857778
 11
917.50497022044158
 21
409.89766199273117
  0
LINE
  8
_0-0_
  6
CONTINUOUS
 62
    4
 10
899.23199944743658
 20
447.262515857778
 11
931.00497022044158
 21
415.48954508476754
  0
LINE
  8
_0-0_
  6
CONTINUOUS
 62
    7
 10
719.68299587062586
 20
513.3341864361505
 11
797.31829036029569
 21
492.53187197349189
  0
LINE
  8
_0-0_
  6
CONTINUOUS
 62
    7
 10
719.68299587062586
 20
517.99292924799784
 11
986.83669778540946
 21
446.40931056494674
  0
LINE
  8
_0-0_
  6
CONTINUOUS
 62
    4
 10
719.68299587062586
 20
447.262515857778
 11
899.23199944743658
 21
447.262515857778
  0
LINE
  8
_0-0_
  6
CONTINUOUS
 62
    7
 10
719.68299587062586
 20
451.762515857778
 11
821.81519201729509
 21
451.762515857778
  0
LINE
  8
_0-0_
  6
CONTINUOUS
 62
    7
 10
719.68299587062586
 20
433.762515857778
 11
893.64011635539657
 21
433.762515857778
  0
LINE
  8
_0-0_
  6
CONTINUOUS
 62
    7
 10
719.68299587062586
 20
369.57865253578393
 11
783.86685919261447
 21
433.76251585777254
  0
LINE
  8
_0-0_
  6
CONTINUOUS
 62
    7
 10
719.68299587062586
 20
353.66874995909211
 11
799.77676176930629
 21
433.76251585777254
  0
LINE
  8
_0-0_
  6
CONTINUOUS
 62
    7
 10
719.68299587062586
 20
337.75884738239301
 11
815.68666434600539
 21
433.76251585777254
  0
LINE
  8
_0-0_
  6
CONTINUOUS
 62
    7
 10
917.50497022044158
 20
409.89766199273117
 11
917.50497022044158
 21
197.06114812935334
  0
LINE
  8
_0-0_
  6
CONTINUOUS
 62
    4
 10
931.00497022044158
 20
415.48954508476754
 11
931.00497022044158
 21
197.06114812935334
  0
LINE
  8
_0-0_
  6
CONTINUOUS
 62
    7
 10
954.5678683409061
 20
389.86162278321945
 11
994.94915442957256
 21
319.91918360267528
  0
TEXT
  8
_0-0_
 62
    7
 10
997.99307905290709
 20
302.6831832549874
 40
21.617968000000001
 41
1
 50
0
  1
ｼｰﾘﾝｸﾞ
  0
POINT
  8
_0-0_
 62
    7
 10
954.5678683409061
 20
389.86162278321945
  0
LINE
  8
_0-0_
  6
CONTINUOUS
 62
    7
 10
956.39015301073607
 20
417.35742939218335
 11
996.56750648948412
 21
486.94664693102868
  0
POINT
  8
_0-0_
 62
    7
 10
956.39015301073607
 20
417.35742939218335
  0
TEXT
  8
_0-0_
 62
    7
 10
1000.0390803756073
 20
480.6483740712506
 40
21.617968000000001
 41
1
 50
0
  1
ﾊﾞｯｸｱｯﾌﾟ材
  0
CIRCLE
  8
_0-0_
  6
DASHED2
 62
    1
 10
1224.7825815009192
 20
916.90401828574022
 40
67.350194333739935
  0
TEXT
  8
_0-0_
 62
    7
 10
1212.4908361417647
 20
972.2159065580895
 40
24
 41
1
 50
0
  1
Ｂ
  0
LINE
  8
_0-0_
  6
CONTINUOUS
 62
    3
 10
1160.7839220176329
 20
1209.4777431164807
 11
1160.7839220176329
 21
1213.6777431164805
  0
CIRCLE
  8
_0-0_
  6
DASHED2
 62
    1
 10
1164.175979783121
 20
1209.1883943580829
 40
67.350194333739935
  0
LINE
  8
_0-0_
  6
DASHED2
 62
    5
 10
1425.4815201445472
 20
288.03841782364952
 11
1524.4421072271562
 21
288.03841782364952
  0
LINE
  8
_0-0_
  6
CONTINUOUS
 62
    7
 10
1373.8272281226891
 20
300.39371136495402
 11
1420.844277101105
 21
381.82962901752626
  0
LINE
  8
_0-0_
  6
CONTINUOUS
 62
    7
 10
1223.5601817165589
 20
414.1657755450783
 11
1298.0837696209728
 21
488.68936344949225
  0
LINE
  8
_0-0_
  6
CONTINUOUS
 62
    7
 10
1223.5601817165589
 20
430.07567812177558
 11
1282.1738670442755
 21
488.68936344949225
  0
LINE
  8
_0-0_
  6
CONTINUOUS
 62
    7
 10
1223.5601817165589
 20
445.98558069847104
 11
1266.2639644675801
 21
488.68936344949225
  0
LINE
  8
_0-0_
  6
CONTINUOUS
 62
    7
 10
1312.9815201445472
 20
271.53841782364952
 11
1673.1531227639389
 21
271.53841782364952
  0
LINE
  8
_0-0_
  6
CONTINUOUS
 62
    3
 10
1425.4815201445472
 20
285.03841782364952
 11
1673.1531227639389
 21
285.03841782364952
  0
LINE
  8
_0-0_
  6
CONTINUOUS
 62
    4
 10
1326.4815201445472
 20
305.28841782364952
 11
1673.1531227639389
 21
305.28841782364952
  0
LINE
  8
_0-0_
  6
CONTINUOUS
 62
    7
 10
1508.8319031881074
 20
190.32061456231281
 11
1590.049706449443
 21
271.53841782364771
  0
LINE
  8
_0-0_
  6
CONTINUOUS
 62
    7
 10
1492.9220006114101
 20
190.32061456231281
 11
1574.1398038727457
 21
271.53841782364771
  0
LINE
  8
_0-0_
  6
CONTINUOUS
 62
    7
 10
1477.0120980347147
 20
190.32061456231281
 11
1558.229901296052
 21
271.53841782364771
  0
LINE
  8
_0-0_
  6
CONTINUOUS
 62
    4
 10
1326.4815201445472
 20
488.68936344949225
 11
1326.4815201445472
 21
305.28841782364952
  0
LINE
  8
_0-0_
  6
CONTINUOUS
 62
    7
 10
1312.9815201445472
 20
271.53841782364952
 11
1312.9815201445472
 21
488.68936344949225
  0
LINE
  8
_0-0_
  6
CONTINUOUS
 62
    3
 10
1425.4815201445472
 20
285.03841782364952
 11
1425.4815201445472
 21
271.53841782364952
  0
LINE
  8
_0-0_
  6
DASHED2
 62
    5
 10
1425.4815201445472
 20
288.03841782364952
 11
1414.9815201445472
 21
277.53841782364952
  0
POINT
  8
_0-0_
 62
    7
 10
1373.8272281226891
 20
300.39371136495402
  0
LINE
  8
_0-0_
  6
CONTINUOUS
 62
    7
 10
1333.9630430598263
 20
305.28841782364952
 11
1412.6749087728003
 21
441.62136839706045
  0
POINT
  8
_0-0_
 62
    7
 10
1333.9630430598263
 20
305.28841782364952
  0
POINT
  8
_0-0_
 62
    7
 10
1473.3281681234639
 20
288.03841782364952
  0
POINT
  8
_0-0_
 62
    7
 10
1531.2379699134726
 20
278.28841782364952
  0
LINE
  8
_0-0_
  6
CONTINUOUS
 62
    7
 10
1578.2165165614861
 20
271.53841782364952
 11
1609.5812245766429
 21
325.86368567046384
  0
POINT
  8
_0-0_
 62
    7
 10
1578.2165165614861
 20
271.53841782364952
  0
TEXT
  8
_0-0_
 62
    7
 10
1402.283697046365
 20
443.96990588674771
 40
21.617968000000001
 41
1
 50
0
  1
ﾄｯﾌﾟｺｰﾄ
  0
TEXT
  8
_0-0_
 62
    7
 10
1404.7537872609737
 20
384.7178191743601
 40
21.617968000000001
 41
1
 50
0
  1
ｳﾚﾀﾝ防水
  0
LINE
  8
_0-0_
  6
CONTINUOUS
 62
    7
 10
1473.3281681234639
 20
288.03841782364952
 11
1535.9071706344057
 21
396.42842965957834
  0
TEXT
  8
_0-0_
 62
    7
 10
1525.3269934881737
 20
403.44444793444245
 40
21.617968000000001
 41
1
 50
0
  1
DFﾒｯｼｭﾃｰﾌﾟ
  0
TEXT
  8
_0-0_
 62
    7
 10
1604.175956688523
 20
327.22378350743884
 40
21.617968000000001
 41
1
 50
0
  1
ﾌﾟﾗｲﾏｰ
  0
TEXT
  8
_0-0_
 62
    7
 10
1552.0143348790607
 20
361.72569884315499
 40
21.617968000000001
 41
1
 50
0
  1
通気緩衝ｼｰﾄ
  0
LINE
  8
_0-0_
  6
CONTINUOUS
 62
    7
 10
1531.2379699134726
 20
278.28841782364952
 11
1576.1396539206708
 21
356.06041586951915
  0
LINE
  8
_0-0_
  6
CONTINUOUS
 62
    7
 10
672.13606690525205
 20
1633.3565543671127
 11
1706.8525777203686
 21
1633.3565543671127
  0
LINE
  8
_0-0_
  6
CONTINUOUS
 62
    7
 10
672.13606690525205
 20
1553.3565543671127
 11
1706.8525777203686
 21
1553.3565543671127
  0
LINE
  8
_0-0_
  6
CONTINUOUS
 62
    7
 10
672.13606690525205
 20
1473.3565543671127
 11
1706.8525777203686
 21
1473.3565543671127
  0
LINE
  8
_0-0_
  6
CONTINUOUS
 62
    7
 10
1189.4943223128103
 20
1633.3565543671127
 11
1189.4943223128103
 21
1473.3565543671127
  0
TEXT
  8
_0-0_
 62
    7
 10
696.13606690525205
 20
1497.3565543671127
 40
20
 41
1
 50
0
  1
施工部位：トップライト
  0
TEXT
  8
_0-0_
 62
    7
 10
1213.4943223128103
 20
1577.3565543671127
 40
20
 41
1
 50
0
  1
構造：ＲＣ造
  0
TEXT
  8
_0-0_
 62
    7
 10
1213.4943223128103
 20
1497.3565543671127
 40
20
 41
1
 50
0
  1
下地：コンクリートスラブ
  0
TEXT
  8
_0-0_
 62
    7
 10
696.13606690525194
 20
1577.3565543671127
 40
20
 41
1
 50
0
  1
図面番号：tsuki-SP-top-01
  0
ENDSEC
  0
EOF
