  0
SECTION
  2
HEADER
  9
$ACADVER
  1
AC1009
  9
$INSBASE
 10
0
 20
0
 30
0
  9
$EXTMIN
 10
0
 20
0
  9
$EXTMAX
 10
2378
 20
1682
  9
$LIMMIN
 10
0
 20
0
  9
$LIMMAX
 10
2378
 20
1682
  9
$LTSCALE
 40
1
  0
ENDSEC
  0
SECTION
  2
TABLES
  0
TABLE
  2
LTYPE
 70
     9
  0
LTYPE
  2
CONTINUOUS
 70
    64
  3
実線
 72
    65
 73
     0
 40
0.0
  0
LTYPE
  2
DASHED1
 70
    64
  3
--  --  --  --  --  --  --  --  
 72
    65
 73
     2
 40
2.5
 49
1.25
 49
-1.25
  0
LTYPE
  2
DASHED2
 70
    64
  3
----    ----    ----    ----    
 72
    65
 73
     2
 40
5.0
 49
2.5
 49
-2.5
  0
LTYPE
  2
DASHED3
 70
    64
  3
------  ------  ------  ------  
 72
    65
 73
     2
 40
5.0
 49
3.75
 49
-1.25
  0
LTYPE
  2
CENTER1
 70
    64
  3
----- - ----- - ----- - ----- - 
 72
    65
 73
     4
 40
10.0
 49
6.25
 49
-1.25
 49
1.25
 49
-1.25
  0
LTYPE
  2
CENTER2
 70
    64
  3
----------  --  ----------  --  
 72
    65
 73
     4
 40
20.0
 49
12.5
 49
-2.5
 49
2.5
 49
-2.5
  0
LTYPE
  2
PHANTOM1
 70
    64
  3
--- - - --- - - --- - - --- - - 
 72
    65
 73
     6
 40
10.0
 49
3.25
 49
-1.25
 49
1.25
 49
-1.25
 49
1.25
 49
-1.25
  0
LTYPE
  2
PHANTOM2
 70
    64
  3
--------  -  -  --------  -  -  
 72
    65
 73
     6
 40
20.0
 49
10.0
 49
-2.5
 49
1.25
 49
-2.5
 49
1.25
 49
-2.5
  0
LTYPE
  2
DOT
 70
    64
  3
-   -   -   -   -   -   -   -   
 72
    65
 73
     2
 40
2.5
 49
0.625
 49
-1.875
  0
LTYPE
  2
DUMMY
 70
    64
  3
ダミー
 72
    65
 73
     0
 40
0.0
  0
LTYPE
  2
RAND1
 70
    64
  3
ランダム線1
 72
    65
 73
     4
 40
10.0
 49
1.0
 49
-2.0
 49
3.0
 49
-4.0
  0
LTYPE
  2
RAND2
 70
    64
  3
ランダム線2
 72
    65
 73
     4
 40
14.0
 49
2.0
 49
-3.0
 49
4.0
 49
-5.0
  0
LTYPE
  2
RAND3
 70
    64
  3
ランダム線3
 72
    65
 73
     4
 40
18.0
 49
3.0
 49
-4.0
 49
5.0
 49
-6.0
  0
LTYPE
  2
RAND4
 70
    64
  3
ランダム線4
 72
    65
 73
     4
 40
22.0
 49
4.0
 49
-5.0
 49
6.0
 49
-7.0
  0
LTYPE
  2
RAND5
 70
    64
  3
ランダム線5
 72
    65
 73
     4
 40
26.0
 49
5.0
 49
-6.0
 49
7.0
 49
-8.0
  0
LTYPE
  2
LONG1
 70
    64
  3
----------  --  ----------  --  
 72
    65
 73
     4
 40
40.0
 49
32.5
 49
-2.5
 49
2.5
 49
-2.5
  0
LTYPE
  2
LONG2
 70
    64
  3
--------  -  -  --------  -  -  
 72
    65
 73
     6
 40
40.0
 49
30.0
 49
-2.5
 49
1.25
 49
-2.5
 49
1.25
 49
-2.5
  0
LTYPE
  2
LONG3
 70
    64
  3
+++++++++++++++..+++++++++++++++
 72
    65
 73
     2
 40
40.0
 49
37.5
 49
-2.5
  0
LTYPE
  2
LONG4
 70
    64
  3
+++++++++++++++..+++++++++++++++
 72
    65
 73
     2
 40
80.0
 49
75.0
 49
-5.0
  0
LTYPE
  2
LONG5
 70
    64
  3
----------  --  ----------  --  
 72
    65
 73
     4
 40
60.0
 49
37.5
 49
-7.5
 49
7.5
 49
-7.5
  0
LTYPE
  2
dashed
 70
   64
  3
-------   -------------   ------
 72
   65
 73
    2
 40
7.5
 49
6
 49
-1.5
  0
LTYPE
  2
dashed_spaced
 70
   64
  3
----        --------        ----
 72
   65
 73
    2
 40
12
 49
6
 49
-6
  0
LTYPE
  2
long_dashed_dotted
 70
   64
  3
------------- --- --------------
 72
   65
 73
    4
 40
15.25
 49
12
 49
-1.5
 49
0.25
 49
-1.5
  0
LTYPE
  2
long_dashed_double-dotted
 70
   64
  3
----------- --- --- ------------
 72
   65
 73
    6
 40
17
 49
12
 49
-1.5
 49
0.25
 49
-1.5
 49
0.25
 49
-1.5
  0
LTYPE
  2
long_dashed_triplicate-dotted
 70
   64
  3
--------- --- --- --- ----------
 72
   65
 73
    8
 40
18.75
 49
12
 49
-1.5
 49
0.25
 49
-1.5
 49
0.25
 49
-1.5
 49
0.25
 49
-1.5
  0
LTYPE
  2
dotted
 70
   64
  3
   -       -       -       -    
 72
   65
 73
    2
 40
1.75
 49
0.25
 49
-1.5
  0
LTYPE
  2
chain
 70
   64
  3
-------------- -- --------------
 72
   65
 73
    4
 40
18.5
 49
12
 49
-1.5
 49
3.5
 49
-1.5
  0
LTYPE
  2
chain_double_dash
 70
   64
  3
------------ -- -- -------------
 72
   65
 73
    6
 40
23.5
 49
12
 49
-1.5
 49
3.5
 49
-1.5
 49
3.5
 49
-1.5
  0
LTYPE
  2
dashed_dotted
 70
   64
  3
-----------     -     ----------
 72
   65
 73
    4
 40
9.25
 49
6
 49
-1.5
 49
0.25
 49
-1.5
  0
LTYPE
  2
double-dashed_dotted
 70
   64
  3
------   -----------   -   -----
 72
   65
 73
    6
 40
16.75
 49
6
 49
-1.5
 49
6
 49
-1.5
 49
0.25
 49
-1.5
  0
LTYPE
  2
dashed_double-dotted
 70
   64
  3
---------    -    -    ---------
 72
   65
 73
    6
 40
11
 49
6
 49
-1.5
 49
0.25
 49
-1.5
 49
0.25
 49
-1.5
  0
LTYPE
  2
double-dashed_double-dotted
 70
   64
  3
-----   ---------   -   -   ----
 72
   65
 73
    8
 40
18.5
 49
6
 49
-1.5
 49
6
 49
-1.5
 49
0.25
 49
-1.5
 49
0.25
 49
-1.5
  0
LTYPE
  2
dashed_triplicate-dotted
 70
   64
  3
-------    -    -    -    ------
 72
   65
 73
    8
 40
12.75
 49
6
 49
-1.5
 49
0.25
 49
-1.5
 49
0.25
 49
-1.5
 49
0.25
 49
-1.5
  0
LTYPE
  2
double-dashed_triplicate-dotted
 70
   64
  3
-----  ---------  -  -  -  -----
 72
   65
 73
   10
 40
20.25
 49
6
 49
-1.5
 49
6
 49
-1.5
 49
0.25
 49
-1.5
 49
0.25
 49
-1.5
 49
0.25
 49
-1.5
  0
LTYPE
  2
undefined
 70
   64
  3
--------------------------------
 72
   65
 73
    0
 40
0
  0
ENDTAB
  0
TABLE
  2
STYLE
  5
3
100
AcDbSymbolTable
 70
     1
  0
STYLE
  5
10
100
AcDbSymbolTableRecord
100
AcDbTextStyleTableRecord
  2
STANDARD
 70
     0
 40
0.0
 41
1.0
 50
0.0
 71
     0
 42
0.2
  3
txt
  4
bigfont.shx
  0
STYLE
  5
26
100
AcDbSymbolTableRecord
100
AcDbTextStyleTableRecord
  2
TATEGAKI
 70
    68
 40
0.0
 41
1.0
 50
0.0
 71
     0
 42
1.0
  3
txt
  4
bigfont.shx
  0
ENDTAB
  0
TABLE
  2
LAYER
 70
    2
  0
LAYER
  2
_0-0_
 70
   64
 62
    7
  6
CONTINUOUS
  0
LAYER
  2
ADD_LINE
 70
   64
 62
    7
  6
CONTINUOUS
  0
ENDTAB
  0
ENDSEC
  0
SECTION
  2
BLOCKS
  0
ENDSEC
  0
SECTION
  2
ENTITIES
  0
LINE
  8
_0-0_
  6
CONTINUOUS
 62
    4
 10
1329.0774588611966
 20
306.12395066967952
 11
1675.7490614805865
 21
306.12395066967952
  0
LINE
  8
_0-0_
  6
CONTINUOUS
 62
    3
 10
1073.9254991561102
 20
1058.9922480620153
 11
1523.9254991561102
 21
1058.9922480620153
  0
LINE
  8
_0-0_
  6
CONTINUOUS
 62
    7
 10
1043.9254991561102
 20
1158.9922480620153
 11
1023.9254991561103
 21
1158.9922480620153
  0
LINE
  8
_0-0_
  6
CONTINUOUS
 62
    7
 10
672.13606690525205
 20
567.53106997205487
 11
1706.8525777203649
 21
567.53106997205487
  0
LINE
  8
_0-0_
  6
CONTINUOUS
 62
    7
 10
672.13606690525205
 20
167.53106997205509
 11
1706.8525777203649
 21
167.53106997205509
  0
LINE
  8
_0-0_
  6
CONTINUOUS
 62
    7
 10
672.13606690525205
 20
627.53106997205487
 11
1706.8525777203649
 21
627.53106997205487
  0
LINE
  8
_0-0_
  6
CONTINUOUS
 62
    7
 10
1189.4943223128103
 20
627.53106997205487
 11
1189.4943223128103
 21
167.53106997205509
  0
LINE
  8
_0-0_
  6
CONTINUOUS
 62
    7
 10
672.13606690525205
 20
1633.3565543671134
 11
672.13606690525205
 21
167.53106997205509
  0
LINE
  8
_0-0_
  6
CONTINUOUS
 62
    7
 10
1706.8525777203649
 20
1633.3565543671134
 11
1706.8525777203649
 21
167.53106997205509
  0
LINE
  8
_0-0_
  6
CONTINUOUS
 62
    7
 10
1223.9254991561102
 20
872.99224806201528
 11
1523.9254991561102
 21
872.99224806201528
  0
LINE
  8
_0-0_
  6
CONTINUOUS
 62
    7
 10
1223.9254991561102
 20
872.99224806201528
 11
1223.9254991561102
 21
772.99224806201528
  0
LINE
  8
_0-0_
  6
CONTINUOUS
 62
    7
 10
1023.9254991561103
 20
1052.9922480620153
 11
1523.9254991561102
 21
1052.9922480620153
  0
LINE
  8
_0-0_
  6
CONTINUOUS
 62
    4
 10
1029.9254991561102
 20
1067.9922480620153
 11
1523.9254991561102
 21
1067.9922480620153
  0
TEXT
  8
_0-0_
 62
    7
 10
906.73245032900388
 20
575.67973412101128
 40
40
 41
1
 50
0
  1
Ａ
  0
TEXT
  8
_0-0_
 62
    7
 10
1429.6891920142079
 20
576.02721287347686
 40
40
 41
1
 50
0
  1
Ｂ
  0
LINE
  8
_0-0_
  6
CONTINUOUS
 62
    7
 10
1216.1733265094554
 20
1060.4922480620153
 11
1275.9312715000342
 21
1163.9960449416039
  0
POINT
  8
_0-0_
 62
    7
 10
1216.1733265094554
 20
1060.4922480620153
  0
LINE
  8
_0-0_
  6
CONTINUOUS
 62
    4
 10
1029.9254991561102
 20
1158.9922480620153
 11
1029.9254991561102
 21
1067.9922480620153
  0
LINE
  8
_0-0_
  6
CONTINUOUS
 62
    7
 10
1023.9254991561103
 20
1052.9922480620153
 11
1023.9254991561103
 21
1158.9922480620153
  0
LINE
  8
_0-0_
  6
CONTINUOUS
 62
    7
 10
1026.7927453119264
 20
1158.9922480620153
 11
1043.9254991561102
 21
1176.1250019062009
  0
LINE
  8
_0-0_
  6
CONTINUOUS
 62
    7
 10
963.42404853958226
 20
1440.9858702173556
 11
954.24684853958399
 21
1427.879470217355
  0
LINE
  8
_0-0_
  6
CONTINUOUS
 62
    7
 10
963.42404853958226
 20
1440.9858702173556
 11
961.03894853958275
 21
1434.4326702173553
  0
LINE
  8
_0-0_
  6
CONTINUOUS
 62
    7
 10
954.24684853958399
 20
1427.8794702173541
 11
956.6319485395835
 21
1434.4326702173553
  0
LINE
  8
_0-0_
  6
CONTINUOUS
 62
    7
 10
860.77661825290136
 20
1434.4326702173553
 11
956.6319485395835
 21
1434.4326702173553
  0
LINE
  8
_0-0_
  6
CONTINUOUS
 62
    7
 10
961.03894853958275
 20
1434.4326702173553
 11
1057.4345825254313
 21
1434.4326702173553
  0
LINE
  8
_0-0_
  6
CONTINUOUS
 62
    7
 10
873.92549915611028
 20
1434.4326702173553
 11
873.92549915611028
 21
772.99224806201528
  0
LINE
  8
_0-0_
  6
CONTINUOUS
 62
    7
 10
1043.9254991561102
 20
1158.9922480620153
 11
1043.9254991561102
 21
1434.4326702173553
  0
ARC
  8
_0-0_
  6
CONTINUOUS
 62
    2
 10
1066.5536812488135
 20
1122.3640659693128
 40
43.054132766050088
 50
121.70696983898064
 51
148.29303016101935
  0
LINE
  8
_0-0_
  6
CONTINUOUS
 62
    2
 10
1029.9254991561102
 20
1145.3246617864424
 11
1030.5044093276483
 21
1145.9035719579797
  0
LINE
  8
_0-0_
  6
CONTINUOUS
 62
    2
 10
1043.0141752601485
 20
1158.413337890478
 11
1043.593085431683
 21
1158.9922480620153
  0
LINE
  8
_0-0_
  6
CONTINUOUS
 62
    2
 10
1029.9254991561102
 20
1148.1530889111891
 11
1040.7646583069363
 21
1158.9922480620144
  0
LINE
  8
_0-0_
  6
CONTINUOUS
 62
    2
 10
1029.9254991561138
 20
1150.9815160359349
 11
1037.9362311821933
 21
1158.9922480620144
  0
LINE
  8
_0-0_
  6
CONTINUOUS
 62
    2
 10
1029.9254991561138
 20
1153.8099431606815
 11
1035.1078040574466
 21
1158.9922480620153
  0
LINE
  8
_0-0_
  6
CONTINUOUS
 62
    2
 10
1029.9254991561102
 20
1156.6383702854273
 11
1032.2793769327
 21
1158.9922480620153
  0
LINE
  8
_0-0_
  6
CONTINUOUS
 62
    7
 10
962.5198203743895
 20
370.74005731514808
 11
917.5198203743895
 21
370.74005731514808
  0
LINE
  8
_0-0_
  6
CONTINUOUS
 62
    7
 10
923.97112422496878
 20
370.74005731514808
 11
962.5198203743895
 21
409.28875346456516
  0
ARC
  8
_0-0_
  6
CONTINUOUS
 62
    2
 10
1013.4332300829702
 20
288.32664760656735
 40
96.871798723612699
 50
121.70696983898064
 51
148.29303016101935
  0
LINE
  8
_0-0_
  6
CONTINUOUS
 62
    2
 10
931.0198203743895
 20
339.98798819510921
 11
932.3223682603458
 21
341.29053608106824
  0
LINE
  8
_0-0_
  6
CONTINUOUS
 62
    2
 10
960.46934160846661
 20
369.43750942918905
 11
961.77188949442655
 21
370.74005731514808
  0
LINE
  8
_0-0_
  6
CONTINUOUS
 62
    2
 10
931.01982037438586
 20
346.35194922578921
 11
955.40792846374472
 21
370.74005731514626
  0
LINE
  8
_0-0_
  6
CONTINUOUS
 62
    2
 10
931.0198203743895
 20
352.7159102564674
 11
949.04396743307018
 21
370.74005731514626
  0
LINE
  8
_0-0_
  6
CONTINUOUS
 62
    2
 10
931.0198203743895
 20
359.0798712871474
 11
942.680006402392
 21
370.74005731514808
  0
LINE
  8
_0-0_
  6
CONTINUOUS
 62
    2
 10
931.0198203743895
 20
365.44383231782558
 11
936.31604537171017
 21
370.74005731514808
  0
LINE
  8
_0-0_
  6
CONTINUOUS
 62
    7
 10
749.00553609545398
 20
227.5942743390226
 11
962.5198203743895
 21
441.1085586179579
  0
LINE
  8
_0-0_
  6
CONTINUOUS
 62
    7
 10
764.91543867214943
 20
227.5942743390226
 11
962.5198203743895
 21
425.19865604126153
  0
LINE
  8
_0-0_
  6
CONTINUOUS
 62
    7
 10
780.82534124884489
 20
227.5942743390226
 11
917.5198203743895
 21
364.28875346456516
  0
LINE
  8
_0-0_
  6
CONTINUOUS
 62
    7
 10
917.5198203743895
 20
227.5942743390226
 11
917.5198203743895
 21
370.74005731514808
  0
LINE
  8
_0-0_
  6
CONTINUOUS
 62
    4
 10
931.0198203743895
 20
370.74005731514808
 11
931.0198203743895
 21
227.5942743390226
  0
LINE
  8
_0-0_
  6
CONTINUOUS
 62
    7
 10
962.5198203743895
 20
370.74005731514808
 11
962.5198203743895
 21
515.65563591888167
  0
CIRCLE
  8
_0-0_
  6
DASHED2
 62
    1
 10
1073.9254991561102
 20
1058.9922480620153
 40
67.350194333739935
  0
TEXT
  8
_0-0_
 62
    7
 10
1061.6337537969557
 20
1114.3041363343646
 40
24
 41
1
 50
0
  1
Ｂ
  0
CIRCLE
  8
_0-0_
  6
DASHED2
 62
    1
 10
1029.9254991561102
 20
1158.9922480620153
 40
37.146580028874958
  0
TEXT
  8
_0-0_
 62
    7
 10
998.36270444083505
 20
1179.0441725931814
 40
24
 41
1
 50
0
  1
Ａ
  0
LINE
  8
_0-0_
  6
CONTINUOUS
 62
    3
 10
1073.9254991561102
 20
1058.9922480620153
 11
1073.9254991561102
 21
1052.9922480620153
  0
LINE
  8
_0-0_
  6
CONTINUOUS
 62
    7
 10
942.79811433799489
 20
361.9870585443839
 11
1004.3614497458149
 21
468.61788335413144
  0
POINT
  8
_0-0_
 62
    7
 10
942.79811433799489
 20
361.9870585443839
  0
TEXT
  8
_0-0_
 62
    7
 10
1007.0850241938061
 20
459.5258183256135
 40
21.617968000000001
 41
1
 50
0
  1
ｼｰﾘﾝｸﾞ
  0
LINE
  8
_0-0_
  6
DASHED2
 62
    5
 10
1428.0774588611966
 20
288.87395066967952
 11
1527.0380459438056
 21
288.87395066967952
  0
LINE
  8
_0-0_
  6
CONTINUOUS
 62
    7
 10
1376.4231668393368
 20
301.22924421098401
 11
1423.4402158177545
 21
382.66516186355625
  0
LINE
  8
_0-0_
  6
CONTINUOUS
 62
    7
 10
1226.1561204332065
 20
415.0013083911083
 11
1300.6797083376223
 21
489.52489629552133
  0
LINE
  8
_0-0_
  6
CONTINUOUS
 62
    7
 10
1226.1561204332065
 20
430.91121096780557
 11
1284.7698057609232
 21
489.52489629552133
  0
LINE
  8
_0-0_
  6
CONTINUOUS
 62
    7
 10
1226.1561204332065
 20
446.82111354450103
 11
1268.8599031842277
 21
489.52489629552133
  0
LINE
  8
_0-0_
  6
CONTINUOUS
 62
    7
 10
1315.5774588611966
 20
272.37395066967952
 11
1675.7490614805865
 21
272.37395066967952
  0
LINE
  8
_0-0_
  6
CONTINUOUS
 62
    3
 10
1428.0774588611966
 20
285.87395066967952
 11
1675.7490614805865
 21
285.87395066967952
  0
LINE
  8
_0-0_
  6
CONTINUOUS
 62
    7
 10
1511.427841904755
 20
191.15614740834235
 11
1592.6456451660924
 21
272.37395066967679
  0
LINE
  8
_0-0_
  6
CONTINUOUS
 62
    7
 10
1495.5179393280596
 20
191.15614740834235
 11
1576.7357425893933
 21
272.37395066967679
  0
LINE
  8
_0-0_
  6
CONTINUOUS
 62
    7
 10
1479.6080367513641
 20
191.15614740834235
 11
1560.8258400127015
 21
272.37395066967679
  0
LINE
  8
_0-0_
  6
CONTINUOUS
 62
    4
 10
1329.0774588611966
 20
489.52489629552133
 11
1329.0774588611966
 21
306.12395066967952
  0
LINE
  8
_0-0_
  6
CONTINUOUS
 62
    7
 10
1315.5774588611966
 20
272.37395066967952
 11
1315.5774588611966
 21
489.52489629552133
  0
LINE
  8
_0-0_
  6
DASHED2
 62
    5
 10
1315.5774588611966
 20
278.37395066967952
 11
1417.5774588611966
 21
278.37395066967952
  0
LINE
  8
_0-0_
  6
CONTINUOUS
 62
    3
 10
1428.0774588611966
 20
285.87395066967952
 11
1428.0774588611966
 21
272.37395066967952
  0
LINE
  8
_0-0_
  6
DASHED2
 62
    5
 10
1428.0774588611966
 20
288.87395066967952
 11
1417.5774588611966
 21
278.37395066967952
  0
POINT
  8
_0-0_
 62
    7
 10
1376.4231668393368
 20
301.22924421098401
  0
LINE
  8
_0-0_
  6
CONTINUOUS
 62
    7
 10
1336.558981776474
 20
306.12395066967952
 11
1415.2708474894498
 21
442.45690124308953
  0
POINT
  8
_0-0_
 62
    7
 10
1336.558981776474
 20
306.12395066967952
  0
POINT
  8
_0-0_
 62
    7
 10
1475.9241068401134
 20
288.87395066967952
  0
POINT
  8
_0-0_
 62
    7
 10
1533.8339086301203
 20
279.12395066967952
  0
LINE
  8
_0-0_
  6
CONTINUOUS
 62
    7
 10
1580.8124552781337
 20
272.37395066967952
 11
1612.1771632932905
 21
326.69921851649383
  0
POINT
  8
_0-0_
 62
    7
 10
1580.8124552781337
 20
272.37395066967952
  0
TEXT
  8
_0-0_
 62
    7
 10
1404.8796357630126
 20
444.80543873277702
 40
21.617968000000001
 41
1
 50
0
  1
ﾄｯﾌﾟｺｰﾄ
  0
TEXT
  8
_0-0_
 62
    7
 10
1527.9229322048195
 20
404.27998078047244
 40
21.617968000000001
 41
1
 50
0
  1
DFﾒｯｼｭﾃｰﾌﾟ
  0
TEXT
  8
_0-0_
 62
    7
 10
1407.3497259776195
 20
385.55335202038964
 40
21.617968000000001
 41
1
 50
0
  1
ｳﾚﾀﾝ防水
  0
LINE
  8
_0-0_
  6
CONTINUOUS
 62
    7
 10
1475.9241068401134
 20
288.87395066967952
 11
1538.5031093510515
 21
397.26396250560742
  0
TEXT
  8
_0-0_
 62
    7
 10
1554.6102735957065
 20
362.5612316891843
 40
21.617968000000001
 41
1
 50
0
  1
通気緩衝ｼｰﾄ
  0
TEXT
  8
_0-0_
 62
    7
 10
1606.7718954051707
 20
328.0593163534686
 40
21.617968000000001
 41
1
 50
0
  1
ﾌﾟﾗｲﾏｰ
  0
LINE
  8
_0-0_
  6
CONTINUOUS
 62
    7
 10
1533.8339086301203
 20
279.12395066967952
 11
1578.7355926373166
 21
356.89594871554846
  0
TEXT
  8
_0-0_
 62
    7
 10
1281.3935952223401
 20
1149.4246983553548
 40
30
 41
1
 50
0
  1
防水層
  0
LINE
  8
_0-0_
  6
CONTINUOUS
 62
    7
 10
1158.7753211816562
 20
772.99224806201551
 11
1223.9254991561102
 21
838.14242603646903
  0
LINE
  8
_0-0_
  6
CONTINUOUS
 62
    7
 10
1258.7753211816562
 20
872.99224806201551
 11
1438.7753211816562
 21
1052.9922480620151
  0
LINE
  8
_0-0_
  6
CONTINUOUS
 62
    7
 10
1151.7042533697932
 20
772.99224806201551
 11
1223.9254991561138
 21
845.21349384833343
  0
LINE
  8
_0-0_
  6
CONTINUOUS
 62
    7
 10
1251.7042533697932
 20
872.99224806201551
 11
1431.7042533697932
 21
1052.9922480620151
  0
LINE
  8
_0-0_
  6
CONTINUOUS
 62
    7
 10
1144.6331855579265
 20
772.99224806201551
 11
1223.9254991561102
 21
852.28456166019964
  0
LINE
  8
_0-0_
  6
CONTINUOUS
 62
    7
 10
1244.6331855579265
 20
872.9922480620146
 11
1424.6331855579265
 21
1052.9922480620155
  0
LINE
  8
_0-0_
  6
CONTINUOUS
 62
    7
 10
873.92549915611028
 20
799.26940975855291
 11
1127.6483374595737
 21
1052.9922480620164
  0
LINE
  8
_0-0_
  6
CONTINUOUS
 62
    7
 10
873.92549915611028
 20
806.34047757041549
 11
1120.5772696477106
 21
1052.992248062016
  0
LINE
  8
_0-0_
  6
CONTINUOUS
 62
    7
 10
873.92549915611028
 20
813.41154538228034
 11
1113.5062018358458
 21
1052.9922480620146
  0
LINE
  8
_0-0_
  6
CONTINUOUS
 62
    7
 10
873.92549915611028
 20
1110.3963934806309
 11
1043.9254991561102
 21
1280.3963934806311
  0
LINE
  8
_0-0_
  6
CONTINUOUS
 62
    7
 10
873.92549915611028
 20
1117.467461292498
 11
1043.9254991561102
 21
1287.4674612924982
  0
LINE
  8
_0-0_
  6
CONTINUOUS
 62
    7
 10
873.9254991561121
 20
1124.538529104361
 11
1043.9254991561138
 21
1294.5385291043617
  0
LINE
  8
_0-0_
  6
CONTINUOUS
 62
    7
 10
873.92549915611391
 20
1421.5233772027109
 11
886.8347921707574
 21
1434.4326702173553
  0
LINE
  8
_0-0_
  6
CONTINUOUS
 62
    7
 10
873.92549915611028
 20
1428.5944450145766
 11
879.76372435889073
 21
1434.4326702173553
  0
LINE
  8
_0-0_
  6
CONTINUOUS
 62
    7
 10
1158.7753211816562
 20
772.99224806201551
 11
1223.9254991561102
 21
838.14242603646903
  0
LINE
  8
_0-0_
  6
CONTINUOUS
 62
    7
 10
1258.7753211816562
 20
872.99224806201551
 11
1438.7753211816562
 21
1052.9922480620151
  0
LINE
  8
_0-0_
  6
CONTINUOUS
 62
    7
 10
1151.7042533697932
 20
772.99224806201551
 11
1223.9254991561138
 21
845.21349384833343
  0
LINE
  8
_0-0_
  6
CONTINUOUS
 62
    7
 10
1251.7042533697932
 20
872.99224806201551
 11
1431.7042533697932
 21
1052.9922480620151
  0
LINE
  8
_0-0_
  6
CONTINUOUS
 62
    7
 10
1144.6331855579265
 20
772.99224806201551
 11
1223.9254991561102
 21
852.28456166019964
  0
LINE
  8
_0-0_
  6
CONTINUOUS
 62
    7
 10
1244.6331855579265
 20
872.9922480620146
 11
1424.6331855579265
 21
1052.9922480620155
  0
LINE
  8
_0-0_
  6
CONTINUOUS
 62
    7
 10
873.92549915611028
 20
799.26940975855291
 11
1127.6483374595737
 21
1052.9922480620164
  0
LINE
  8
_0-0_
  6
CONTINUOUS
 62
    7
 10
873.92549915611028
 20
806.34047757041549
 11
1120.5772696477106
 21
1052.992248062016
  0
LINE
  8
_0-0_
  6
CONTINUOUS
 62
    7
 10
873.92549915611028
 20
813.41154538228034
 11
1113.5062018358458
 21
1052.9922480620146
  0
LINE
  8
_0-0_
  6
CONTINUOUS
 62
    7
 10
873.92549915611028
 20
1110.3963934806309
 11
1043.9254991561102
 21
1280.3963934806311
  0
LINE
  8
_0-0_
  6
CONTINUOUS
 62
    7
 10
873.92549915611028
 20
1117.467461292498
 11
1043.9254991561102
 21
1287.4674612924982
  0
LINE
  8
_0-0_
  6
CONTINUOUS
 62
    7
 10
873.9254991561121
 20
1124.538529104361
 11
1043.9254991561138
 21
1294.5385291043617
  0
LINE
  8
_0-0_
  6
CONTINUOUS
 62
    7
 10
873.92549915611391
 20
1421.5233772027109
 11
886.8347921707574
 21
1434.4326702173553
  0
LINE
  8
_0-0_
  6
CONTINUOUS
 62
    7
 10
873.92549915611028
 20
1428.5944450145766
 11
879.76372435889073
 21
1434.4326702173553
  0
LINE
  8
_0-0_
  6
CONTINUOUS
 62
    7
 10
672.13606690525205
 20
1633.3565543671134
 11
1706.8525777203649
 21
1633.3565543671134
  0
LINE
  8
_0-0_
  6
CONTINUOUS
 62
    7
 10
672.13606690525205
 20
1553.3565543671134
 11
1706.8525777203649
 21
1553.3565543671134
  0
LINE
  8
_0-0_
  6
CONTINUOUS
 62
    7
 10
672.13606690525205
 20
1473.3565543671134
 11
1706.8525777203649
 21
1473.3565543671134
  0
LINE
  8
_0-0_
  6
CONTINUOUS
 62
    7
 10
1189.4943223128103
 20
1633.3565543671134
 11
1189.4943223128103
 21
1473.3565543671134
  0
TEXT
  8
_0-0_
 62
    7
 10
1213.4943223128103
 20
1577.3565543671134
 40
20
 41
1
 50
0
  1
構造：ＲＣ造
  0
TEXT
  8
_0-0_
 62
    7
 10
1213.4943223128103
 20
1497.3565543671134
 40
20
 41
1
 50
0
  1
下地：コンクリートスラブ
  0
TEXT
  8
_0-0_
 62
    7
 10
696.13606690525194
 20
1577.3565543671134
 40
20
 41
1
 50
0
  1
図面番号：tsuki-SP-kabe-01
  0
TEXT
  8
_0-0_
 62
    7
 10
696.13606690525205
 20
1497.3565543671134
 40
20
 41
1
 50
0
  1
施工部位：壁面立上り(入り巾木)
  0
ENDSEC
  0
EOF
