  0
SECTION
  2
HEADER
  9
$ACADVER
  1
AC1009
  9
$INSBASE
 10
0
 20
0
 30
0
  9
$EXTMIN
 10
0
 20
0
  9
$EXTMAX
 10
2378
 20
1682
  9
$LIMMIN
 10
0
 20
0
  9
$LIMMAX
 10
2378
 20
1682
  9
$LTSCALE
 40
1
  0
ENDSEC
  0
SECTION
  2
TABLES
  0
TABLE
  2
LTYPE
 70
     9
  0
LTYPE
  2
CONTINUOUS
 70
    64
  3
実線
 72
    65
 73
     0
 40
0.0
  0
LTYPE
  2
DASHED1
 70
    64
  3
--  --  --  --  --  --  --  --  
 72
    65
 73
     2
 40
2.5
 49
1.25
 49
-1.25
  0
LTYPE
  2
DASHED2
 70
    64
  3
----    ----    ----    ----    
 72
    65
 73
     2
 40
5.0
 49
2.5
 49
-2.5
  0
LTYPE
  2
DASHED3
 70
    64
  3
------  ------  ------  ------  
 72
    65
 73
     2
 40
5.0
 49
3.75
 49
-1.25
  0
LTYPE
  2
CENTER1
 70
    64
  3
----- - ----- - ----- - ----- - 
 72
    65
 73
     4
 40
10.0
 49
6.25
 49
-1.25
 49
1.25
 49
-1.25
  0
LTYPE
  2
CENTER2
 70
    64
  3
----------  --  ----------  --  
 72
    65
 73
     4
 40
20.0
 49
12.5
 49
-2.5
 49
2.5
 49
-2.5
  0
LTYPE
  2
PHANTOM1
 70
    64
  3
--- - - --- - - --- - - --- - - 
 72
    65
 73
     6
 40
10.0
 49
3.25
 49
-1.25
 49
1.25
 49
-1.25
 49
1.25
 49
-1.25
  0
LTYPE
  2
PHANTOM2
 70
    64
  3
--------  -  -  --------  -  -  
 72
    65
 73
     6
 40
20.0
 49
10.0
 49
-2.5
 49
1.25
 49
-2.5
 49
1.25
 49
-2.5
  0
LTYPE
  2
DOT
 70
    64
  3
-   -   -   -   -   -   -   -   
 72
    65
 73
     2
 40
2.5
 49
0.625
 49
-1.875
  0
LTYPE
  2
DUMMY
 70
    64
  3
ダミー
 72
    65
 73
     0
 40
0.0
  0
LTYPE
  2
RAND1
 70
    64
  3
ランダム線1
 72
    65
 73
     4
 40
10.0
 49
1.0
 49
-2.0
 49
3.0
 49
-4.0
  0
LTYPE
  2
RAND2
 70
    64
  3
ランダム線2
 72
    65
 73
     4
 40
14.0
 49
2.0
 49
-3.0
 49
4.0
 49
-5.0
  0
LTYPE
  2
RAND3
 70
    64
  3
ランダム線3
 72
    65
 73
     4
 40
18.0
 49
3.0
 49
-4.0
 49
5.0
 49
-6.0
  0
LTYPE
  2
RAND4
 70
    64
  3
ランダム線4
 72
    65
 73
     4
 40
22.0
 49
4.0
 49
-5.0
 49
6.0
 49
-7.0
  0
LTYPE
  2
RAND5
 70
    64
  3
ランダム線5
 72
    65
 73
     4
 40
26.0
 49
5.0
 49
-6.0
 49
7.0
 49
-8.0
  0
LTYPE
  2
LONG1
 70
    64
  3
----------  --  ----------  --  
 72
    65
 73
     4
 40
40.0
 49
32.5
 49
-2.5
 49
2.5
 49
-2.5
  0
LTYPE
  2
LONG2
 70
    64
  3
--------  -  -  --------  -  -  
 72
    65
 73
     6
 40
40.0
 49
30.0
 49
-2.5
 49
1.25
 49
-2.5
 49
1.25
 49
-2.5
  0
LTYPE
  2
LONG3
 70
    64
  3
+++++++++++++++..+++++++++++++++
 72
    65
 73
     2
 40
40.0
 49
37.5
 49
-2.5
  0
LTYPE
  2
LONG4
 70
    64
  3
+++++++++++++++..+++++++++++++++
 72
    65
 73
     2
 40
80.0
 49
75.0
 49
-5.0
  0
LTYPE
  2
LONG5
 70
    64
  3
----------  --  ----------  --  
 72
    65
 73
     4
 40
60.0
 49
37.5
 49
-7.5
 49
7.5
 49
-7.5
  0
LTYPE
  2
dashed
 70
   64
  3
-------   -------------   ------
 72
   65
 73
    2
 40
7.5
 49
6
 49
-1.5
  0
LTYPE
  2
dashed_spaced
 70
   64
  3
----        --------        ----
 72
   65
 73
    2
 40
12
 49
6
 49
-6
  0
LTYPE
  2
long_dashed_dotted
 70
   64
  3
------------- --- --------------
 72
   65
 73
    4
 40
15.25
 49
12
 49
-1.5
 49
0.25
 49
-1.5
  0
LTYPE
  2
long_dashed_double-dotted
 70
   64
  3
----------- --- --- ------------
 72
   65
 73
    6
 40
17
 49
12
 49
-1.5
 49
0.25
 49
-1.5
 49
0.25
 49
-1.5
  0
LTYPE
  2
long_dashed_triplicate-dotted
 70
   64
  3
--------- --- --- --- ----------
 72
   65
 73
    8
 40
18.75
 49
12
 49
-1.5
 49
0.25
 49
-1.5
 49
0.25
 49
-1.5
 49
0.25
 49
-1.5
  0
LTYPE
  2
dotted
 70
   64
  3
   -       -       -       -    
 72
   65
 73
    2
 40
1.75
 49
0.25
 49
-1.5
  0
LTYPE
  2
chain
 70
   64
  3
-------------- -- --------------
 72
   65
 73
    4
 40
18.5
 49
12
 49
-1.5
 49
3.5
 49
-1.5
  0
LTYPE
  2
chain_double_dash
 70
   64
  3
------------ -- -- -------------
 72
   65
 73
    6
 40
23.5
 49
12
 49
-1.5
 49
3.5
 49
-1.5
 49
3.5
 49
-1.5
  0
LTYPE
  2
dashed_dotted
 70
   64
  3
-----------     -     ----------
 72
   65
 73
    4
 40
9.25
 49
6
 49
-1.5
 49
0.25
 49
-1.5
  0
LTYPE
  2
double-dashed_dotted
 70
   64
  3
------   -----------   -   -----
 72
   65
 73
    6
 40
16.75
 49
6
 49
-1.5
 49
6
 49
-1.5
 49
0.25
 49
-1.5
  0
LTYPE
  2
dashed_double-dotted
 70
   64
  3
---------    -    -    ---------
 72
   65
 73
    6
 40
11
 49
6
 49
-1.5
 49
0.25
 49
-1.5
 49
0.25
 49
-1.5
  0
LTYPE
  2
double-dashed_double-dotted
 70
   64
  3
-----   ---------   -   -   ----
 72
   65
 73
    8
 40
18.5
 49
6
 49
-1.5
 49
6
 49
-1.5
 49
0.25
 49
-1.5
 49
0.25
 49
-1.5
  0
LTYPE
  2
dashed_triplicate-dotted
 70
   64
  3
-------    -    -    -    ------
 72
   65
 73
    8
 40
12.75
 49
6
 49
-1.5
 49
0.25
 49
-1.5
 49
0.25
 49
-1.5
 49
0.25
 49
-1.5
  0
LTYPE
  2
double-dashed_triplicate-dotted
 70
   64
  3
-----  ---------  -  -  -  -----
 72
   65
 73
   10
 40
20.25
 49
6
 49
-1.5
 49
6
 49
-1.5
 49
0.25
 49
-1.5
 49
0.25
 49
-1.5
 49
0.25
 49
-1.5
  0
LTYPE
  2
undefined
 70
   64
  3
--------------------------------
 72
   65
 73
    0
 40
0
  0
ENDTAB
  0
TABLE
  2
STYLE
  5
3
100
AcDbSymbolTable
 70
     1
  0
STYLE
  5
10
100
AcDbSymbolTableRecord
100
AcDbTextStyleTableRecord
  2
STANDARD
 70
     0
 40
0.0
 41
1.0
 50
0.0
 71
     0
 42
0.2
  3
txt
  4
bigfont.shx
  0
STYLE
  5
26
100
AcDbSymbolTableRecord
100
AcDbTextStyleTableRecord
  2
TATEGAKI
 70
    68
 40
0.0
 41
1.0
 50
0.0
 71
     0
 42
1.0
  3
txt
  4
bigfont.shx
  0
ENDTAB
  0
TABLE
  2
LAYER
 70
    2
  0
LAYER
  2
_0-0_
 70
   64
 62
    7
  6
CONTINUOUS
  0
LAYER
  2
ADD_LINE
 70
   64
 62
    7
  6
CONTINUOUS
  0
ENDTAB
  0
ENDSEC
  0
SECTION
  2
BLOCKS
  0
ENDSEC
  0
SECTION
  2
ENTITIES
  0
LINE
  8
_0-0_
  6
CONTINUOUS
 62
    7
 10
1062.036571677414
 20
953.96439150201809
 11
1298.0742181912374
 21
953.96439150201809
  0
LINE
  8
_0-0_
  6
CONTINUOUS
 62
    7
 10
672.13606690525205
 20
1633.3565543671132
 11
672.13606690525205
 21
167.53106997205509
  0
LINE
  8
_0-0_
  6
CONTINUOUS
 62
    7
 10
672.13606690525205
 20
167.53106997205509
 11
1706.8525777203677
 21
167.53106997205509
  0
LINE
  8
_0-0_
  6
CONTINUOUS
 62
    7
 10
1706.8525777203677
 20
1633.3565543671132
 11
1706.8525777203677
 21
167.53106997205509
  0
LINE
  8
_0-0_
  6
CONTINUOUS
 62
    7
 10
1062.036571677414
 20
963.96439150201809
 11
1062.036571677414
 21
953.96439150201809
  0
LINE
  8
_0-0_
  6
CONTINUOUS
 62
    2
 10
1127.4196184519997
 20
943.96439150201809
 11
1137.4196184519988
 21
953.964391502019
  0
LINE
  8
_0-0_
  6
CONTINUOUS
 62
    7
 10
1418.52377767486
 20
753.07305004607883
 11
1478.2817226654388
 21
856.5768469256675
  0
POINT
  8
_0-0_
 62
    7
 10
1418.52377767486
 20
753.07305004607883
  0
LINE
  8
_0-0_
  6
CONTINUOUS
 62
    7
 10
1051.4299699596158
 20
818.48674197314745
 11
1170.9076194884856
 21
937.96439150201809
  0
LINE
  8
_0-0_
  6
CONTINUOUS
 62
    7
 10
1051.4299699596158
 20
811.4156741612826
 11
1177.9786873003522
 21
937.96439150201809
  0
LINE
  8
_0-0_
  6
CONTINUOUS
 62
    7
 10
1051.4299699596158
 20
804.34460634941684
 11
1185.0497551122171
 21
937.96439150201809
  0
LINE
  8
_0-0_
  6
CONTINUOUS
 62
    7
 10
1062.036571677414
 20
937.96439150201809
 11
1051.4299699596158
 21
927.3577897842199
  0
LINE
  8
_0-0_
  6
CONTINUOUS
 62
    7
 10
1298.1048082418165
 20
937.96439150201809
 11
1308.7114099596147
 21
927.3577897842199
  0
LINE
  8
_0-0_
  6
CONTINUOUS
 62
    4
 10
1300.5900896160547
 20
943.96439150201809
 11
1314.7114099596147
 21
929.84307115845809
  0
LINE
  8
_0-0_
  6
CONTINUOUS
 62
    4
 10
1059.5512903031758
 20
943.96439150201809
 11
1045.4299699596158
 21
929.84307115845809
  0
ARC
  8
_0-0_
  6
CONTINUOUS
 62
    4
 10
1140.0706899596153
 20
953.96439150201809
 40
10
 50
270
 51
0
  0
ARC
  8
_0-0_
  6
CONTINUOUS
 62
    4
 10
1220.0706899596153
 20
953.96439150201809
 40
10
 50
180
 51
270
  0
LINE
  8
_0-0_
  6
CONTINUOUS
 62
    7
 10
1298.1048082418165
 20
963.96439150201809
 11
1298.1048082418165
 21
953.96439150201809
  0
LINE
  8
_0-0_
  6
CONTINUOUS
 62
    7
 10
1150.0706899596153
 20
937.96439150201809
 11
1150.0706899596153
 21
953.96439150201809
  0
LINE
  8
_0-0_
  6
CONTINUOUS
 62
    7
 10
1210.0706899596153
 20
937.96439150201809
 11
1210.0706899596153
 21
953.96439150201809
  0
ARC
  8
_0-0_
  6
CONTINUOUS
 62
    2
 10
1045.4299699596158
 20
952.78276812042463
 40
16.648587160161849
 50
328.01635454645526
 51
4.0699550833350946
  0
ARC
  8
_0-0_
  6
CONTINUOUS
 62
    2
 10
1314.7114099596147
 20
952.78276812042463
 40
16.648587160161849
 50
175.93004491666491
 51
211.98364545354471
  0
LINE
  8
_0-0_
  6
CONTINUOUS
 62
    1
 10
1093.9503299596154
 20
966.04439150201893
 11
1122.5503299596157
 21
966.04439150201893
  0
LINE
  8
_0-0_
  6
CONTINUOUS
 62
    1
 10
1119.3003299596148
 20
986.84439150201638
 11
1097.2003299596145
 21
986.84439150201638
  0
LINE
  8
_0-0_
  6
CONTINUOUS
 62
    1
 10
1115.0753299596154
 20
963.96439150201809
 11
1115.0753299596154
 21
966.04439150201893
  0
LINE
  8
_0-0_
  6
CONTINUOUS
 62
    1
 10
1122.5503299596157
 20
966.04439150201893
 11
1122.5503299596157
 21
963.96439150201809
  0
LINE
  8
_0-0_
  6
CONTINUOUS
 62
    1
 10
1122.5503299596157
 20
963.96439150201809
 11
1093.9503299596154
 21
963.96439150201809
  0
LINE
  8
_0-0_
  6
CONTINUOUS
 62
    1
 10
1101.4253299596157
 20
963.96439150201809
 11
1101.4253299596157
 21
966.04439150201893
  0
LINE
  8
_0-0_
  6
CONTINUOUS
 62
    1
 10
1093.9503299596154
 20
966.04439150201893
 11
1093.9503299596154
 21
963.96439150201809
  0
LINE
  8
_0-0_
  6
CONTINUOUS
 62
    1
 10
1121.009770908704
 20
985.85744530989473
 11
1095.4908890105244
 21
985.85744530989473
  0
LINE
  8
_0-0_
  6
CONTINUOUS
 62
    1
 10
1097.2003299596145
 20
986.84439150201638
 11
1095.4908890105244
 21
985.85744530989473
  0
LINE
  8
_0-0_
  6
CONTINUOUS
 62
    1
 10
1095.4908890105244
 20
985.85744530989473
 11
1095.4908890105244
 21
976.44439150201765
  0
LINE
  8
_0-0_
  6
CONTINUOUS
 62
    1
 10
1121.009770908704
 20
985.85744530989473
 11
1119.3003299596148
 21
986.84439150201638
  0
LINE
  8
_0-0_
  6
CONTINUOUS
 62
    1
 10
1121.009770908704
 20
976.44439150201765
 11
1121.009770908704
 21
985.85744530989473
  0
LINE
  8
_0-0_
  6
CONTINUOUS
 62
    1
 10
1095.4908890105226
 20
976.44439150201765
 11
1121.009770908704
 21
976.44439150201765
  0
LINE
  8
_0-0_
  6
CONTINUOUS
 62
    1
 10
1112.6300504341607
 20
976.44439150201765
 11
1112.6300504341607
 21
985.85744530989473
  0
LINE
  8
_0-0_
  6
CONTINUOUS
 62
    1
 10
1099.8706094850695
 20
985.85744530989473
 11
1097.2003299596145
 21
986.84439150201638
  0
LINE
  8
_0-0_
  6
CONTINUOUS
 62
    1
 10
1112.6300504341607
 20
985.85744530989473
 11
1119.3003299596148
 21
986.84439150201638
  0
LINE
  8
_0-0_
  6
CONTINUOUS
 62
    1
 10
1099.8706094850695
 20
985.85744530989473
 11
1099.8706094850695
 21
976.44439150201765
  0
ARC
  8
_0-0_
  6
CONTINUOUS
 62
    1
 10
1106.2503299596146
 20
965.73133769413766
 40
21.113053807878593
 50
72.412046226006396
 51
107.5879537739936
  0
ARC
  8
_0-0_
  6
CONTINUOUS
 62
    1
 10
1106.2503299596146
 20
965.73133769414585
 40
21.113053807870138
 50
72.412046225996733
 51
107.58795377400018
  0
LINE
  8
_0-0_
  6
CONTINUOUS
 62
    1
 10
1097.2003299596154
 20
976.44439150201765
 11
1119.3003299596157
 21
976.44439150201765
  0
LINE
  8
_0-0_
  6
CONTINUOUS
 62
    1
 10
1097.2003299596145
 20
966.04439150201893
 11
1119.3003299596148
 21
966.04439150201893
  0
LINE
  8
_0-0_
  6
CONTINUOUS
 62
    1
 10
1095.4908890105262
 20
975.457445309896
 11
1121.0097709087058
 21
975.457445309896
  0
LINE
  8
_0-0_
  6
CONTINUOUS
 62
    1
 10
1119.3003299596157
 20
976.44439150201765
 11
1121.0097709087058
 21
975.457445309896
  0
LINE
  8
_0-0_
  6
CONTINUOUS
 62
    1
 10
1121.0097709087058
 20
975.457445309896
 11
1121.0097709087058
 21
966.04439150201893
  0
LINE
  8
_0-0_
  6
CONTINUOUS
 62
    1
 10
1095.4908890105262
 20
975.457445309896
 11
1097.2003299596154
 21
976.44439150201765
  0
LINE
  8
_0-0_
  6
CONTINUOUS
 62
    1
 10
1095.4908890105262
 20
966.04439150201893
 11
1095.4908890105262
 21
975.457445309896
  0
LINE
  8
_0-0_
  6
CONTINUOUS
 62
    1
 10
1121.0097709087077
 20
966.04439150201893
 11
1095.4908890105262
 21
966.04439150201893
  0
LINE
  8
_0-0_
  6
CONTINUOUS
 62
    1
 10
1103.8706094850695
 20
966.04439150201893
 11
1103.8706094850695
 21
975.457445309896
  0
LINE
  8
_0-0_
  6
CONTINUOUS
 62
    1
 10
1116.6300504341607
 20
975.457445309896
 11
1119.3003299596157
 21
976.44439150201765
  0
LINE
  8
_0-0_
  6
CONTINUOUS
 62
    1
 10
1103.8706094850695
 20
975.457445309896
 11
1097.2003299596154
 21
976.44439150201765
  0
LINE
  8
_0-0_
  6
CONTINUOUS
 62
    1
 10
1116.6300504341607
 20
975.457445309896
 11
1116.6300504341607
 21
966.04439150201893
  0
ARC
  8
_0-0_
  6
CONTINUOUS
 62
    1
 10
1110.2503299596156
 20
955.33133769413894
 40
21.113053807878593
 50
72.412046226006396
 51
107.5879537739936
  0
ARC
  8
_0-0_
  6
CONTINUOUS
 62
    1
 10
1110.2503299596156
 20
955.33133769414712
 40
21.113053807870138
 50
72.412046225999816
 51
107.58795377400327
  0
LINE
  8
_0-0_
  6
CONTINUOUS
 62
    1
 10
1101.7503299596156
 20
993.27797189275248
 11
1114.7503299596156
 21
993.27797189275248
  0
LINE
  8
_0-0_
  6
CONTINUOUS
 62
    1
 10
1113.7103299596156
 20
994.31797189275335
 11
1113.7103299596156
 21
986.84439150201638
  0
LINE
  8
_0-0_
  6
CONTINUOUS
 62
    1
 10
1114.7503299596156
 20
986.84439150201638
 11
1114.7503299596156
 21
993.27797189275248
  0
LINE
  8
_0-0_
  6
CONTINUOUS
 62
    1
 10
1114.7503299596156
 20
993.27797189275248
 11
1112.8003299596157
 21
995.2279718927532
  0
LINE
  8
_0-0_
  6
CONTINUOUS
 62
    1
 10
1112.8003299596157
 20
995.2279718927532
 11
1103.7003299596154
 21
995.2279718927532
  0
LINE
  8
_0-0_
  6
CONTINUOUS
 62
    1
 10
1103.7003299596154
 20
995.2279718927532
 11
1101.7503299596156
 21
993.27797189275248
  0
LINE
  8
_0-0_
  6
CONTINUOUS
 62
    1
 10
1101.7503299596156
 20
993.27797189275248
 11
1101.7503299596156
 21
986.84439150201638
  0
LINE
  8
_0-0_
  6
CONTINUOUS
 62
    1
 10
1102.7903299596146
 20
994.31797189275335
 11
1102.7903299596146
 21
986.84439150201638
  0
LINE
  8
_0-0_
  6
CONTINUOUS
 62
    1
 10
1101.7503299596156
 20
987.12900406409176
 11
1114.7503299596156
 21
988.26635668992844
  0
LINE
  8
_0-0_
  6
CONTINUOUS
 62
    1
 10
1101.7503299596156
 20
989.13664373917914
 11
1114.7503299596156
 21
990.27399636501582
  0
LINE
  8
_0-0_
  6
CONTINUOUS
 62
    1
 10
1101.7503299596156
 20
991.14428341426469
 11
1114.7503299596156
 21
992.28163604010228
  0
LINE
  8
_0-0_
  6
CONTINUOUS
 62
    1
 10
1101.7503299596156
 20
993.15192308935116
 11
1113.8203857161907
 21
994.20791613617735
  0
LINE
  8
_0-0_
  6
CONTINUOUS
 62
    1
 10
1237.5910499596157
 20
966.04439150201893
 11
1266.1910499596161
 21
966.04439150201893
  0
LINE
  8
_0-0_
  6
CONTINUOUS
 62
    1
 10
1262.9410499596142
 20
986.84439150201638
 11
1240.8410499596157
 21
986.84439150201638
  0
LINE
  8
_0-0_
  6
CONTINUOUS
 62
    1
 10
1258.7160499596157
 20
963.96439150201809
 11
1258.7160499596157
 21
966.04439150201893
  0
LINE
  8
_0-0_
  6
CONTINUOUS
 62
    1
 10
1266.1910499596161
 20
966.04439150201893
 11
1266.1910499596161
 21
963.96439150201809
  0
LINE
  8
_0-0_
  6
CONTINUOUS
 62
    1
 10
1266.1910499596161
 20
963.96439150201809
 11
1237.5910499596157
 21
963.96439150201809
  0
LINE
  8
_0-0_
  6
CONTINUOUS
 62
    1
 10
1245.0660499596161
 20
963.96439150201809
 11
1245.0660499596161
 21
966.04439150201893
  0
LINE
  8
_0-0_
  6
CONTINUOUS
 62
    1
 10
1237.5910499596157
 20
966.04439150201893
 11
1237.5910499596157
 21
963.96439150201809
  0
LINE
  8
_0-0_
  6
CONTINUOUS
 62
    1
 10
1264.6504909087034
 20
985.85744530989473
 11
1239.1316090105247
 21
985.85744530989473
  0
LINE
  8
_0-0_
  6
CONTINUOUS
 62
    1
 10
1240.8410499596157
 20
986.84439150201638
 11
1239.1316090105247
 21
985.85744530989473
  0
LINE
  8
_0-0_
  6
CONTINUOUS
 62
    1
 10
1239.1316090105247
 20
985.85744530989473
 11
1239.1316090105247
 21
976.44439150201765
  0
LINE
  8
_0-0_
  6
CONTINUOUS
 62
    1
 10
1264.6504909087034
 20
985.85744530989473
 11
1262.9410499596142
 21
986.84439150201638
  0
LINE
  8
_0-0_
  6
CONTINUOUS
 62
    1
 10
1264.6504909087034
 20
976.44439150201765
 11
1264.6504909087034
 21
985.85744530989473
  0
LINE
  8
_0-0_
  6
CONTINUOUS
 62
    1
 10
1239.1316090105229
 20
976.44439150201765
 11
1264.6504909087034
 21
976.44439150201765
  0
LINE
  8
_0-0_
  6
CONTINUOUS
 62
    1
 10
1256.270770434161
 20
976.44439150201765
 11
1256.270770434161
 21
985.85744530989473
  0
LINE
  8
_0-0_
  6
CONTINUOUS
 62
    1
 10
1243.5113294850689
 20
985.85744530989473
 11
1240.8410499596157
 21
986.84439150201638
  0
LINE
  8
_0-0_
  6
CONTINUOUS
 62
    1
 10
1256.270770434161
 20
985.85744530989473
 11
1262.9410499596142
 21
986.84439150201638
  0
LINE
  8
_0-0_
  6
CONTINUOUS
 62
    1
 10
1243.5113294850689
 20
985.85744530989473
 11
1243.5113294850689
 21
976.44439150201765
  0
ARC
  8
_0-0_
  6
CONTINUOUS
 62
    1
 10
1249.891049959615
 20
965.73133769413766
 40
21.113053807878593
 50
72.412046226006396
 51
107.5879537739936
  0
ARC
  8
_0-0_
  6
CONTINUOUS
 62
    1
 10
1249.891049959615
 20
965.73133769414585
 40
21.113053807870138
 50
72.412046225996733
 51
107.58795377400018
  0
LINE
  8
_0-0_
  6
CONTINUOUS
 62
    1
 10
1240.8410499596157
 20
976.44439150201765
 11
1262.9410499596161
 21
976.44439150201765
  0
LINE
  8
_0-0_
  6
CONTINUOUS
 62
    1
 10
1240.8410499596157
 20
966.04439150201893
 11
1262.9410499596142
 21
966.04439150201893
  0
LINE
  8
_0-0_
  6
CONTINUOUS
 62
    1
 10
1239.1316090105265
 20
975.457445309896
 11
1264.6504909087071
 21
975.457445309896
  0
LINE
  8
_0-0_
  6
CONTINUOUS
 62
    1
 10
1262.9410499596161
 20
976.44439150201765
 11
1264.6504909087071
 21
975.457445309896
  0
LINE
  8
_0-0_
  6
CONTINUOUS
 62
    1
 10
1264.6504909087071
 20
975.457445309896
 11
1264.6504909087071
 21
966.04439150201893
  0
LINE
  8
_0-0_
  6
CONTINUOUS
 62
    1
 10
1239.1316090105265
 20
975.457445309896
 11
1240.8410499596157
 21
976.44439150201765
  0
LINE
  8
_0-0_
  6
CONTINUOUS
 62
    1
 10
1239.1316090105265
 20
966.04439150201893
 11
1239.1316090105265
 21
975.457445309896
  0
LINE
  8
_0-0_
  6
CONTINUOUS
 62
    1
 10
1264.6504909087071
 20
966.04439150201893
 11
1239.1316090105265
 21
966.04439150201893
  0
LINE
  8
_0-0_
  6
CONTINUOUS
 62
    1
 10
1247.5113294850689
 20
966.04439150201893
 11
1247.5113294850689
 21
975.457445309896
  0
LINE
  8
_0-0_
  6
CONTINUOUS
 62
    1
 10
1260.270770434161
 20
975.457445309896
 11
1262.9410499596161
 21
976.44439150201765
  0
LINE
  8
_0-0_
  6
CONTINUOUS
 62
    1
 10
1247.5113294850689
 20
975.457445309896
 11
1240.8410499596157
 21
976.44439150201765
  0
LINE
  8
_0-0_
  6
CONTINUOUS
 62
    1
 10
1260.270770434161
 20
975.457445309896
 11
1260.270770434161
 21
966.04439150201893
  0
ARC
  8
_0-0_
  6
CONTINUOUS
 62
    1
 10
1253.891049959615
 20
955.33133769413894
 40
21.113053807878593
 50
72.412046226006396
 51
107.5879537739936
  0
ARC
  8
_0-0_
  6
CONTINUOUS
 62
    1
 10
1253.891049959615
 20
955.33133769414712
 40
21.113053807870138
 50
72.412046225999816
 51
107.58795377400327
  0
LINE
  8
_0-0_
  6
CONTINUOUS
 62
    1
 10
1245.391049959615
 20
993.27797189275248
 11
1258.391049959615
 21
993.27797189275248
  0
LINE
  8
_0-0_
  6
CONTINUOUS
 62
    1
 10
1257.3510499596159
 20
994.31797189275335
 11
1257.3510499596159
 21
986.84439150201638
  0
LINE
  8
_0-0_
  6
CONTINUOUS
 62
    1
 10
1258.391049959615
 20
986.84439150201638
 11
1258.391049959615
 21
993.27797189275248
  0
LINE
  8
_0-0_
  6
CONTINUOUS
 62
    1
 10
1258.391049959615
 20
993.27797189275248
 11
1256.4410499596161
 21
995.2279718927532
  0
LINE
  8
_0-0_
  6
CONTINUOUS
 62
    1
 10
1256.4410499596161
 20
995.2279718927532
 11
1247.3410499596157
 21
995.2279718927532
  0
LINE
  8
_0-0_
  6
CONTINUOUS
 62
    1
 10
1247.3410499596157
 20
995.2279718927532
 11
1245.391049959615
 21
993.27797189275248
  0
LINE
  8
_0-0_
  6
CONTINUOUS
 62
    1
 10
1245.391049959615
 20
993.27797189275248
 11
1245.391049959615
 21
986.84439150201638
  0
LINE
  8
_0-0_
  6
CONTINUOUS
 62
    1
 10
1246.4310499596158
 20
994.31797189275335
 11
1246.4310499596158
 21
986.84439150201638
  0
LINE
  8
_0-0_
  6
CONTINUOUS
 62
    1
 10
1245.391049959615
 20
987.12900406409176
 11
1258.391049959615
 21
988.26635668992844
  0
LINE
  8
_0-0_
  6
CONTINUOUS
 62
    1
 10
1245.391049959615
 20
989.13664373917914
 11
1258.391049959615
 21
990.27399636501582
  0
LINE
  8
_0-0_
  6
CONTINUOUS
 62
    1
 10
1245.391049959615
 20
991.14428341426469
 11
1258.391049959615
 21
992.28163604010228
  0
LINE
  8
_0-0_
  6
CONTINUOUS
 62
    1
 10
1245.391049959615
 20
993.15192308935116
 11
1257.461105716191
 21
994.20791613617735
  0
LINE
  8
_0-0_
  6
CONTINUOUS
 62
    7
 10
1092.0900759217711
 20
937.96439150201809
 11
1100.7503299596156
 21
922.96439150201809
  0
LINE
  8
_0-0_
  6
CONTINUOUS
 62
    7
 10
1100.7503299596156
 20
922.96439150201809
 11
1115.7503299596156
 21
922.96439150201809
  0
LINE
  8
_0-0_
  6
CONTINUOUS
 62
    7
 10
1115.7503299596156
 20
922.96439150201809
 11
1124.41058399746
 21
937.96439150201809
  0
LINE
  8
_0-0_
  6
CONTINUOUS
 62
    7
 10
1235.7307959217706
 20
937.96439150201809
 11
1244.391049959615
 21
922.96439150201809
  0
LINE
  8
_0-0_
  6
CONTINUOUS
 62
    7
 10
1259.391049959615
 20
922.96439150201809
 11
1268.0513039974594
 21
937.96439150201809
  0
LINE
  8
_0-0_
  6
CONTINUOUS
 62
    7
 10
1092.0900759217711
 20
937.96439150201809
 11
1062.036571677414
 21
937.96439150201809
  0
LINE
  8
_0-0_
  6
CONTINUOUS
 62
    7
 10
1298.1048082418165
 20
937.96439150201809
 11
1268.0513039974594
 21
937.96439150201809
  0
LINE
  8
_0-0_
  6
CONTINUOUS
 62
    7
 10
1235.7307959217706
 20
937.96439150201809
 11
1124.41058399746
 21
937.96439150201809
  0
LINE
  8
_0-0_
  6
CONTINUOUS
 62
    2
 10
1141.6944673707003
 20
944.09710479698811
 11
1149.9379766646452
 21
952.34061409093306
  0
LINE
  8
_0-0_
  6
CONTINUOUS
 62
    2
 10
1138.7333269509818
 20
943.96439150201718
 11
1148.7333269509818
 21
953.96439150201718
  0
LINE
  8
_0-0_
  6
CONTINUOUS
 62
    2
 10
1135.9048998262369
 20
943.96439150201718
 11
1145.9048998262388
 21
953.96439150201809
  0
LINE
  8
_0-0_
  6
CONTINUOUS
 62
    2
 10
1133.0764727014921
 20
943.964391502019
 11
1143.0764727014903
 21
953.96439150201718
  0
LINE
  8
_0-0_
  6
CONTINUOUS
 62
    2
 10
1130.2480455767445
 20
943.96439150201718
 11
1140.2480455767454
 21
953.96439150201718
  0
LINE
  8
_0-0_
  6
CONTINUOUS
 62
    2
 10
1124.5911913272512
 20
943.96439150201718
 11
1134.5911913272521
 21
953.96439150201809
  0
LINE
  8
_0-0_
  6
CONTINUOUS
 62
    2
 10
1121.7627642025054
 20
943.96439150201809
 11
1131.7627642025054
 21
953.96439150201809
  0
LINE
  8
_0-0_
  6
CONTINUOUS
 62
    2
 10
1084.993211580806
 20
943.96439150201809
 11
1094.9932115808069
 21
953.964391502019
  0
LINE
  8
_0-0_
  6
CONTINUOUS
 62
    2
 10
1082.1647844560603
 20
943.964391502019
 11
1092.1647844560594
 21
953.96439150201809
  0
LINE
  8
_0-0_
  6
CONTINUOUS
 62
    2
 10
1079.3363573313127
 20
943.96439150201809
 11
1089.3363573313127
 21
953.96439150201809
  0
LINE
  8
_0-0_
  6
CONTINUOUS
 62
    2
 10
1076.5079302065669
 20
943.96439150201718
 11
1086.5079302065669
 21
953.96439150201718
  0
LINE
  8
_0-0_
  6
CONTINUOUS
 62
    2
 10
1073.679503081823
 20
943.96439150201809
 11
1083.679503081823
 21
953.964391502019
  0
LINE
  8
_0-0_
  6
CONTINUOUS
 62
    2
 10
1070.8510759570763
 20
943.964391502019
 11
1080.8510759570763
 21
953.964391502019
  0
LINE
  8
_0-0_
  6
CONTINUOUS
 62
    2
 10
1068.0226488323269
 20
943.96439150201627
 11
1078.0226488323287
 21
953.96439150201809
  0
LINE
  8
_0-0_
  6
CONTINUOUS
 62
    2
 10
1065.194221707583
 20
943.96439150201809
 11
1075.1942217075821
 21
953.96439150201718
  0
LINE
  8
_0-0_
  6
CONTINUOUS
 62
    2
 10
1062.3657945828345
 20
943.96439150201627
 11
1072.3657945828363
 21
953.96439150201809
  0
LINE
  8
_0-0_
  6
CONTINUOUS
 62
    2
 10
1059.5742647640354
 20
944.00128880796387
 11
1069.5373674580878
 21
953.96439150201627
  0
LINE
  8
_0-0_
  6
CONTINUOUS
 62
    2
 10
1061.6114966403102
 20
948.86694780898347
 11
1066.708940333343
 21
953.96439150201627
  0
LINE
  8
_0-0_
  6
CONTINUOUS
 62
    2
 10
1062.066543918253
 20
952.15042221167209
 11
1063.8805132085963
 21
953.96439150201627
  0
LINE
  8
_0-0_
  6
CONTINUOUS
 62
    2
 10
1299.9536730615164
 20
943.96439150201809
 11
1300.3501220718808
 21
944.36084051238254
  0
LINE
  8
_0-0_
  6
CONTINUOUS
 62
    2
 10
1297.1252459367697
 20
943.96439150201718
 11
1299.4018948461253
 21
946.24104041137457
  0
LINE
  8
_0-0_
  6
CONTINUOUS
 62
    2
 10
1294.296818812023
 20
943.96439150201809
 11
1298.6678315314766
 21
948.33540422147257
  0
LINE
  8
_0-0_
  6
CONTINUOUS
 62
    2
 10
1291.4683916872764
 20
943.96439150201718
 11
1298.1947806949593
 21
950.69078050969915
  0
LINE
  8
_0-0_
  6
CONTINUOUS
 62
    2
 10
1288.6399645625334
 20
943.964391502019
 11
1298.0742181912374
 21
953.39864513072303
  0
LINE
  8
_0-0_
  6
CONTINUOUS
 62
    2
 10
1285.8115374377867
 20
943.964391502019
 11
1295.8115374377867
 21
953.96439150201809
  0
LINE
  8
_0-0_
  6
CONTINUOUS
 62
    2
 10
1282.9831103130364
 20
943.96439150201627
 11
1292.98311031304
 21
953.96439150201809
  0
LINE
  8
_0-0_
  6
CONTINUOUS
 62
    2
 10
1280.1546831882933
 20
943.96439150201809
 11
1290.1546831882933
 21
953.96439150201718
  0
LINE
  8
_0-0_
  6
CONTINUOUS
 62
    2
 10
1277.3262560635467
 20
943.96439150201718
 11
1287.3262560635467
 21
953.96439150201809
  0
LINE
  8
_0-0_
  6
CONTINUOUS
 62
    2
 10
1274.4978289387982
 20
943.96439150201627
 11
1284.4978289387982
 21
953.96439150201627
  0
LINE
  8
_0-0_
  6
CONTINUOUS
 62
    2
 10
1271.6694018140533
 20
943.96439150201536
 11
1281.6694018140533
 21
953.96439150201627
  0
LINE
  8
_0-0_
  6
CONTINUOUS
 62
    2
 10
1268.8409746893067
 20
943.96439150201536
 11
1278.8409746893067
 21
953.96439150201627
  0
LINE
  8
_0-0_
  6
CONTINUOUS
 62
    2
 10
1266.0125475645636
 20
943.964391502019
 11
1276.0125475645636
 21
953.96439150201809
  0
LINE
  8
_0-0_
  6
CONTINUOUS
 62
    2
 10
1263.184120439817
 20
943.964391502019
 11
1273.184120439817
 21
953.96439150201809
  0
LINE
  8
_0-0_
  6
CONTINUOUS
 62
    2
 10
1229.2429949428606
 20
943.96439150201536
 11
1239.2429949428606
 21
953.96439150201627
  0
LINE
  8
_0-0_
  6
CONTINUOUS
 62
    2
 10
1226.4145678181139
 20
943.96439150201536
 11
1236.4145678181139
 21
953.96439150201627
  0
LINE
  8
_0-0_
  6
CONTINUOUS
 62
    2
 10
1223.5861406933709
 20
943.964391502019
 11
1233.5861406933709
 21
953.96439150201809
  0
LINE
  8
_0-0_
  6
CONTINUOUS
 62
    2
 10
1220.7577135686224
 20
943.96439150201718
 11
1230.7577135686242
 21
953.96439150201809
  0
LINE
  8
_0-0_
  6
CONTINUOUS
 62
    2
 10
1218.1211604848995
 20
944.15626554304004
 11
1227.9292864438776
 21
953.96439150201809
  0
LINE
  8
_0-0_
  6
CONTINUOUS
 62
    2
 10
1215.9771175099977
 20
944.84064969288579
 11
1225.1008593191309
 21
953.96439150201718
  0
LINE
  8
_0-0_
  6
CONTINUOUS
 62
    2
 10
1214.1867144227854
 20
945.87867373042013
 11
1222.2724321943842
 21
953.96439150201809
  0
LINE
  8
_0-0_
  6
CONTINUOUS
 62
    2
 10
1212.693225735371
 20
947.21361216775153
 11
1219.4440050696376
 21
953.96439150201809
  0
LINE
  8
_0-0_
  6
CONTINUOUS
 62
    2
 10
1211.4863453277303
 20
948.83515888485658
 11
1216.6155779448909
 21
953.96439150201809
  0
LINE
  8
_0-0_
  6
CONTINUOUS
 62
    2
 10
1210.594152519574
 20
950.77139320144602
 11
1213.7871508201442
 21
953.96439150201718
  0
LINE
  8
_0-0_
  6
CONTINUOUS
 62
    2
 10
1210.1070254667047
 20
953.11269327332252
 11
1210.9587236954012
 21
953.96439150201809
  0
LINE
  8
_0-0_
  6
CONTINUOUS
 62
    7
 10
1244.391049959615
 20
922.96439150201809
 11
1259.391049959615
 21
922.96439150201809
  0
LINE
  8
_0-0_
  6
CONTINUOUS
 62
    1
 10
1244.391049959615
 20
953.96439150201809
 11
1246.431049959614
 21
953.96439150201809
  0
LINE
  8
_0-0_
  6
CONTINUOUS
 62
    1
 10
1257.3510499596141
 20
953.96439150201809
 11
1259.391049959615
 21
953.96439150201809
  0
LINE
  8
_0-0_
  6
CONTINUOUS
 62
    1
 10
1143.2503299596156
 20
795.47112337415842
 11
1143.2503299596156
 21
785.47112337415842
  0
LINE
  8
_0-0_
  6
CONTINUOUS
 62
    1
 10
1216.891049959615
 20
795.47112337415842
 11
1216.891049959615
 21
785.47112337415842
  0
LINE
  8
_0-0_
  6
CONTINUOUS
 62
    1
 10
1113.2503299596156
 20
785.47112337415842
 11
1143.2503299596156
 21
785.47112337415842
  0
ARC
  8
_0-0_
  6
CONTINUOUS
 62
    1
 10
1113.2503299596156
 20
795.47112337415842
 40
10
 50
180
 51
270
  0
LINE
  8
_0-0_
  6
CONTINUOUS
 62
    1
 10
1246.891049959615
 20
785.47112337415842
 11
1216.891049959615
 21
785.47112337415842
  0
ARC
  8
_0-0_
  6
CONTINUOUS
 62
    1
 10
1246.891049959615
 20
795.47112337415842
 40
10
 50
270
 51
0
  0
LINE
  8
_0-0_
  6
CONTINUOUS
 62
    1
 10
1117.2503299596156
 20
795.47112337415842
 11
1143.2503299596156
 21
795.47112337415842
  0
ARC
  8
_0-0_
  6
CONTINUOUS
 62
    1
 10
1117.2503299596156
 20
799.47112337415842
 40
4
 50
180
 51
270
  0
LINE
  8
_0-0_
  6
CONTINUOUS
 62
    1
 10
1242.891049959615
 20
795.47112337415842
 11
1216.891049959615
 21
795.47112337415842
  0
ARC
  8
_0-0_
  6
CONTINUOUS
 62
    1
 10
1242.891049959615
 20
799.47112337415842
 40
4
 50
270
 51
0
  0
LINE
  8
_0-0_
  6
CONTINUOUS
 62
    7
 10
1165.0706899596153
 20
963.96439150201809
 11
1062.036571677414
 21
963.96439150201809
  0
ARC
  8
_0-0_
  6
CONTINUOUS
 62
    7
 10
1165.0706899596153
 20
973.96439150201809
 40
10
 50
270
 51
0
  0
LINE
  8
_0-0_
  6
CONTINUOUS
 62
    7
 10
1195.0706899596153
 20
963.96439150201809
 11
1298.1048082418165
 21
963.96439150201809
  0
ARC
  8
_0-0_
  6
CONTINUOUS
 62
    7
 10
1195.0706899596153
 20
973.96439150201809
 40
10
 50
180
 51
270
  0
LINE
  8
_0-0_
  6
CONTINUOUS
 62
    7
 10
1062.036571677414
 20
1198.9643915020181
 11
1298.1048082418165
 21
1198.9643915020181
  0
LINE
  8
_0-0_
  6
CONTINUOUS
 62
    7
 10
1062.036571677414
 20
1198.9643915020181
 11
1062.036571677414
 21
1188.9643915020181
  0
LINE
  8
_0-0_
  6
CONTINUOUS
 62
    7
 10
1298.1048082418165
 20
1198.9643915020181
 11
1298.1048082418165
 21
1188.9643915020181
  0
LINE
  8
_0-0_
  6
CONTINUOUS
 62
    7
 10
1165.0706899596153
 20
1188.9643915020181
 11
1062.036571677414
 21
1188.9643915020181
  0
LINE
  8
_0-0_
  6
CONTINUOUS
 62
    7
 10
1175.0706899596153
 20
1178.9643915020181
 11
1175.0706899596153
 21
973.96439150201809
  0
ARC
  8
_0-0_
  6
CONTINUOUS
 62
    7
 10
1165.0706899596153
 20
1178.9643915020181
 40
10
 50
0
 51
90
  0
LINE
  8
_0-0_
  6
CONTINUOUS
 62
    7
 10
1195.0706899596153
 20
1188.9643915020181
 11
1298.1048082418165
 21
1188.9643915020181
  0
LINE
  8
_0-0_
  6
CONTINUOUS
 62
    7
 10
1185.0706899596153
 20
1178.9643915020181
 11
1185.0706899596153
 21
973.96439150201809
  0
ARC
  8
_0-0_
  6
CONTINUOUS
 62
    7
 10
1195.0706899596153
 20
1178.9643915020181
 40
10
 50
90
 51
180
  0
LINE
  8
_0-0_
  6
CONTINUOUS
 62
    1
 10
1246.891049959615
 20
799.47112337415842
 11
1246.891049959615
 21
963.96439150201809
  0
LINE
  8
_0-0_
  6
CONTINUOUS
 62
    1
 10
1256.891049959615
 20
795.47112337415842
 11
1256.891049959615
 21
963.96439150201809
  0
LINE
  8
_0-0_
  6
CONTINUOUS
 62
    1
 10
1113.2503299596156
 20
799.47112337415842
 11
1113.2503299596156
 21
963.96439150201809
  0
LINE
  8
_0-0_
  6
CONTINUOUS
 62
    1
 10
1103.2503299596156
 20
795.47112337415842
 11
1103.2503299596156
 21
963.96439150201809
  0
LINE
  8
_0-0_
  6
CONTINUOUS
 62
    5
 10
1088.2503299596156
 20
963.51638545728861
 11
1128.2503299596156
 21
963.51638545728861
  0
LINE
  8
_0-0_
  6
CONTINUOUS
 62
    5
 10
1231.891049959615
 20
963.51638545728861
 11
1271.891049959615
 21
963.51638545728861
  0
LINE
  8
_0-0_
  6
CONTINUOUS
 62
    5
 10
1271.891049959615
 20
978.41742386724331
 11
1271.891049959615
 21
978.41742386724331
  0
LINE
  8
_0-0_
  6
CONTINUOUS
 62
    5
 10
1271.891049959615
 20
978.41742386724331
 11
1271.3334172608227
 21
983.075949869243
  0
LINE
  8
_0-0_
  6
CONTINUOUS
 62
    5
 10
1271.3334172608227
 20
983.075949869243
 11
1270.1850380698957
 21
987.53297932598502
  0
LINE
  8
_0-0_
  6
CONTINUOUS
 62
    5
 10
1270.1850380698957
 20
987.53297932598502
 11
1268.4808053074423
 21
991.65308765279201
  0
LINE
  8
_0-0_
  6
CONTINUOUS
 62
    5
 10
1268.4808053074423
 20
991.65308765279201
 11
1266.2725012235667
 21
995.31108744302924
  0
LINE
  8
_0-0_
  6
CONTINUOUS
 62
    5
 10
1266.2725012235667
 20
995.31108744302924
 11
1263.6272240204014
 21
998.39583222410761
  0
LINE
  8
_0-0_
  6
CONTINUOUS
 62
    5
 10
1263.6272240204014
 20
998.39583222410761
 11
1260.6253491071895
 21
1000.8135935868103
  0
LINE
  8
_0-0_
  6
CONTINUOUS
 62
    5
 10
1260.6253491071895
 20
1000.8135935868103
 11
1257.3580869341474
 21
1002.4909090755779
  0
LINE
  8
_0-0_
  6
CONTINUOUS
 62
    5
 10
1257.3580869341474
 20
1002.4909090755779
 11
1253.9247116090883
 21
1003.3768143080466
  0
LINE
  8
_0-0_
  6
CONTINUOUS
 62
    5
 10
1253.9247116090883
 20
1003.3768143080466
 11
1250.4295445038922
 21
1003.4443915020177
  0
LINE
  8
_0-0_
  6
CONTINUOUS
 62
    5
 10
1250.4295445038922
 20
1003.4443915020177
 11
1246.9787845024109
 21
1002.6915873586479
  0
LINE
  8
_0-0_
  6
CONTINUOUS
 62
    5
 10
1246.9787845024109
 20
1002.6915873586479
 11
1243.6772812011206
 21
1001.1412754508965
  0
LINE
  8
_0-0_
  6
CONTINUOUS
 62
    5
 10
1243.6772812011206
 20
1001.1412754508965
 11
1240.6253491071895
 21
998.84056122158461
  0
LINE
  8
_0-0_
  6
CONTINUOUS
 62
    5
 10
1240.6253491071895
 20
998.84056122158461
 11
1237.9157196329397
 21
995.85935070835251
  0
LINE
  8
_0-0_
  6
CONTINUOUS
 62
    5
 10
1237.9157196329397
 20
995.85935070835251
 11
1235.6307234988076
 21
992.28822648407925
  0
LINE
  8
_0-0_
  6
CONTINUOUS
 62
    5
 10
1235.6307234988076
 20
992.28822648407925
 11
1233.8397891560649
 21
988.23569535124329
  0
LINE
  8
_0-0_
  6
CONTINUOUS
 62
    5
 10
1233.8397891560649
 20
988.23569535124329
 11
1232.5973332384592
 21
983.82489141763642
  0
LINE
  8
_0-0_
  6
CONTINUOUS
 62
    5
 10
1232.5973332384592
 20
983.82489141763642
 11
1231.9411071403342
 21
979.18983472880655
  0
LINE
  8
_0-0_
  6
CONTINUOUS
 62
    5
 10
1231.9411071403342
 20
979.18983472880655
 11
1231.891049959615
 21
978.41742386724331
  0
LINE
  8
_0-0_
  6
CONTINUOUS
 62
    5
 10
1231.891049959615
 20
978.41742386724331
 11
1231.891049959615
 21
963.51638545728861
  0
LINE
  8
_0-0_
  6
CONTINUOUS
 62
    5
 10
1271.891049959615
 20
963.51638545728861
 11
1271.891049959615
 21
978.41742386724331
  0
LINE
  8
_0-0_
  6
CONTINUOUS
 62
    5
 10
1128.2503299596156
 20
978.41742386724331
 11
1128.2503299596156
 21
978.41742386724331
  0
LINE
  8
_0-0_
  6
CONTINUOUS
 62
    5
 10
1128.2503299596156
 20
978.41742386724331
 11
1127.6926972608233
 21
983.075949869243
  0
LINE
  8
_0-0_
  6
CONTINUOUS
 62
    5
 10
1127.6926972608233
 20
983.075949869243
 11
1126.5443180698962
 21
987.53297932598502
  0
LINE
  8
_0-0_
  6
CONTINUOUS
 62
    5
 10
1126.5443180698962
 20
987.53297932598502
 11
1124.8400853074429
 21
991.65308765279201
  0
LINE
  8
_0-0_
  6
CONTINUOUS
 62
    5
 10
1124.8400853074429
 20
991.65308765279201
 11
1122.6317812235673
 21
995.31108744302924
  0
LINE
  8
_0-0_
  6
CONTINUOUS
 62
    5
 10
1122.6317812235673
 20
995.31108744302924
 11
1119.986504020402
 21
998.39583222410761
  0
LINE
  8
_0-0_
  6
CONTINUOUS
 62
    5
 10
1119.986504020402
 20
998.39583222410761
 11
1116.9846291071901
 21
1000.8135935868103
  0
LINE
  8
_0-0_
  6
CONTINUOUS
 62
    5
 10
1116.9846291071901
 20
1000.8135935868103
 11
1113.717366934148
 21
1002.4909090755779
  0
LINE
  8
_0-0_
  6
CONTINUOUS
 62
    5
 10
1113.717366934148
 20
1002.4909090755779
 11
1110.2839916090888
 21
1003.3768143080466
  0
LINE
  8
_0-0_
  6
CONTINUOUS
 62
    5
 10
1110.2839916090888
 20
1003.3768143080466
 11
1106.7888245038928
 21
1003.4443915020177
  0
LINE
  8
_0-0_
  6
CONTINUOUS
 62
    5
 10
1106.7888245038928
 20
1003.4443915020177
 11
1103.3380645024115
 21
1002.6915873586479
  0
LINE
  8
_0-0_
  6
CONTINUOUS
 62
    5
 10
1103.3380645024115
 20
1002.6915873586479
 11
1100.0365612011212
 21
1001.1412754508965
  0
LINE
  8
_0-0_
  6
CONTINUOUS
 62
    5
 10
1100.0365612011212
 20
1001.1412754508965
 11
1096.9846291071901
 21
998.84056122158461
  0
LINE
  8
_0-0_
  6
CONTINUOUS
 62
    5
 10
1096.9846291071901
 20
998.84056122158461
 11
1094.2749996329403
 21
995.85935070835251
  0
LINE
  8
_0-0_
  6
CONTINUOUS
 62
    5
 10
1094.2749996329403
 20
995.85935070835251
 11
1091.9900034988082
 21
992.28822648407925
  0
LINE
  8
_0-0_
  6
CONTINUOUS
 62
    5
 10
1091.9900034988082
 20
992.28822648407925
 11
1090.1990691560654
 21
988.23569535124329
  0
LINE
  8
_0-0_
  6
CONTINUOUS
 62
    5
 10
1090.1990691560654
 20
988.23569535124329
 11
1088.9566132384598
 21
983.82489141763642
  0
LINE
  8
_0-0_
  6
CONTINUOUS
 62
    5
 10
1088.9566132384598
 20
983.82489141763642
 11
1088.3003871403348
 21
979.18983472880655
  0
LINE
  8
_0-0_
  6
CONTINUOUS
 62
    5
 10
1088.3003871403348
 20
979.18983472880655
 11
1088.2503299596156
 21
978.41742386724331
  0
LINE
  8
_0-0_
  6
CONTINUOUS
 62
    5
 10
1128.2503299596156
 20
963.51638545728861
 11
1128.2503299596156
 21
978.41742386724331
  0
LINE
  8
_0-0_
  6
CONTINUOUS
 62
    5
 10
1088.2503299596156
 20
978.41742386724331
 11
1088.2503299596156
 21
963.51638545728861
  0
LINE
  8
_0-0_
  6
CONTINUOUS
 62
    7
 10
1295.4361522691361
 20
947.64408175655649
 11
1351.4464393078833
 21
1044.6567446541833
  0
POINT
  8
_0-0_
 62
    7
 10
1295.4361522691361
 20
947.64408175655649
  0
LINE
  8
_0-0_
  6
CONTINUOUS
 62
    7
 10
1112.5950774397161
 20
1000.1722256292362
 11
1067.0556364139538
 21
1079.0488512341437
  0
POINT
  8
_0-0_
 62
    7
 10
1112.5950774397161
 20
1000.1722256292362
  0
LINE
  8
_0-0_
  6
CONTINUOUS
 62
    7
 10
1099.246675041325
 20
934.38367095145009
 11
1044.1004810359245
 21
1029.8996808128543
  0
POINT
  8
_0-0_
 62
    7
 10
1099.246675041325
 20
934.38367095145009
  0
TEXT
  8
_0-0_
 62
    7
 10
1483.2465696893923
 20
844.19346331571819
 40
30
 41
1
 50
0
  1
防水層
  0
TEXT
  8
_0-0_
 62
    7
 10
940.09522578000099
 20
1068.4388617981551
 40
30
 41
1
 50
0
  1
塩ﾋﾞｷｬｯﾌﾟ
  0
TEXT
  8
_0-0_
 62
    7
 10
922.94816897165867
 20
1012.4251428909022
 40
30
 41
1
 50
0
  1
ｳﾚﾀﾝ充填
  0
TEXT
  8
_0-0_
 62
    7
 10
1354.4824319816153
 20
1031.5726896602184
 40
30
 41
1
 50
0
  1
ｼｰﾘﾝｸﾞ
  0
LINE
  8
_0-0_
  6
CONTINUOUS
 62
    7
 10
820.41859295961524
 20
587.47536497314672
 11
940.20126648848702
 21
707.25803850201851
  0
LINE
  8
_0-0_
  6
CONTINUOUS
 62
    7
 10
820.41859295961524
 20
580.40429716128187
 11
947.27233430035187
 21
707.25803850201851
  0
LINE
  8
_0-0_
  6
CONTINUOUS
 62
    7
 10
820.41859295961524
 20
573.33322934941702
 11
954.34340211221672
 21
707.25803850201851
  0
LINE
  8
_0-0_
  6
CONTINUOUS
 62
    7
 10
1500.9592373129599
 20
714.75803850201851
 11
1560.7171823035387
 21
818.26183538160717
  0
POINT
  8
_0-0_
 62
    7
 10
1500.9592373129599
 20
714.75803850201851
  0
LINE
  8
_0-0_
  6
CONTINUOUS
 62
    7
 10
1367.9956812070768
 20
749.25803850201851
 11
1405.8241083318226
 21
749.25803850201851
  0
LINE
  8
_0-0_
  6
CONTINUOUS
 62
  136
 10
1310.7114099596147
 20
777.3707368742264
 11
1337.8241083318226
 21
750.25803850201851
  0
LINE
  8
_0-0_
  6
CONTINUOUS
 62
    6
 10
1308.7114099596142
 20
734.73134781045724
 11
1316.2381006511764
 21
742.25803850201942
  0
LINE
  8
_0-0_
  6
CONTINUOUS
 62
    6
 10
1308.7114099596142
 20
720.58921218672572
 11
1330.3802362749075
 21
742.25803850201942
  0
LINE
  8
_0-0_
  6
CONTINUOUS
 62
    6
 10
1309.5223718986367
 20
707.2580385020176
 11
1344.5223718986367
 21
742.2580385020176
  0
LINE
  8
_0-0_
  6
CONTINUOUS
 62
    6
 10
1323.6645075223696
 20
707.25803850201942
 11
1358.6645075223696
 21
742.25803850201942
  0
LINE
  8
_0-0_
  6
CONTINUOUS
 62
    6
 10
1337.8066431461002
 20
707.25803850201942
 11
1372.8066431461002
 21
742.25803850201942
  0
LINE
  8
_0-0_
  6
CONTINUOUS
 62
    6
 10
1351.9487787698299
 20
707.25803850201851
 11
1386.9487787698295
 21
742.2580385020176
  0
LINE
  8
_0-0_
  6
CONTINUOUS
 62
    6
 10
1366.0909143935623
 20
707.25803850201942
 11
1401.0909143935623
 21
742.25803850201942
  0
LINE
  8
_0-0_
  6
CONTINUOUS
 62
    6
 10
1380.233050017293
 20
707.25803850201942
 11
1415.233050017293
 21
742.25803850201942
  0
LINE
  8
_0-0_
  6
CONTINUOUS
 62
    6
 10
1394.3751856410227
 20
707.2580385020176
 11
1429.3751856410227
 21
742.25803850201851
  0
LINE
  8
_0-0_
  6
CONTINUOUS
 62
    6
 10
1408.5173212647546
 20
707.25803850201851
 11
1443.5173212647551
 21
742.25803850201942
  0
LINE
  8
_0-0_
  6
CONTINUOUS
 62
    6
 10
1422.6594568884857
 20
707.25803850201942
 11
1457.6594568884861
 21
742.25803850201942
  0
LINE
  8
_0-0_
  6
CONTINUOUS
 62
    6
 10
1436.8015925122154
 20
707.25803850201851
 11
1471.8015925122154
 21
742.2580385020176
  0
LINE
  8
_0-0_
  6
CONTINUOUS
 62
    6
 10
1450.9437281359474
 20
707.25803850201942
 11
1485.9437281359474
 21
742.25803850201851
  0
LINE
  8
_0-0_
  6
CONTINUOUS
 62
    6
 10
1465.0858637596789
 20
707.25803850201942
 11
1500.0858637596789
 21
742.25803850201942
  0
LINE
  8
_0-0_
  6
CONTINUOUS
 62
    6
 10
1479.2279993834081
 20
707.25803850201851
 11
1514.2279993834081
 21
742.25803850201851
  0
LINE
  8
_0-0_
  6
CONTINUOUS
 62
    6
 10
1486.4982625705329
 20
742.2580385020176
 11
1521.4982625705325
 21
707.25803850201851
  0
LINE
  8
_0-0_
  6
CONTINUOUS
 62
    6
 10
1472.3561269468005
 20
742.25803850201942
 11
1507.3561269468005
 21
707.25803850201942
  0
LINE
  8
_0-0_
  6
CONTINUOUS
 62
    6
 10
1458.2139913230708
 20
742.25803850201851
 11
1493.2139913230708
 21
707.25803850201851
  0
LINE
  8
_0-0_
  6
CONTINUOUS
 62
    6
 10
1444.0718556993402
 20
742.2580385020176
 11
1479.0718556993397
 21
707.25803850201942
  0
LINE
  8
_0-0_
  6
CONTINUOUS
 62
    6
 10
1429.9297200756077
 20
742.25803850201942
 11
1464.9297200756077
 21
707.25803850201942
  0
LINE
  8
_0-0_
  6
CONTINUOUS
 62
    6
 10
1415.787584451878
 20
742.2580385020176
 11
1450.7875844518776
 21
707.2580385020176
  0
LINE
  8
_0-0_
  6
CONTINUOUS
 62
    6
 10
1401.6454488281474
 20
742.2580385020176
 11
1436.6454488281474
 21
707.2580385020176
  0
LINE
  8
_0-0_
  6
CONTINUOUS
 62
    6
 10
1387.503313204415
 20
742.25803850201942
 11
1422.503313204415
 21
707.25803850201942
  0
LINE
  8
_0-0_
  6
CONTINUOUS
 62
    6
 10
1373.3611775806853
 20
742.2580385020176
 11
1408.3611775806849
 21
707.2580385020176
  0
LINE
  8
_0-0_
  6
CONTINUOUS
 62
    6
 10
1359.2190419569547
 20
742.2580385020176
 11
1394.2190419569542
 21
707.25803850201942
  0
LINE
  8
_0-0_
  6
CONTINUOUS
 62
    6
 10
1345.0769063332223
 20
742.25803850201942
 11
1380.0769063332223
 21
707.25803850201942
  0
LINE
  8
_0-0_
  6
CONTINUOUS
 62
    6
 10
1330.9347707094926
 20
742.2580385020176
 11
1365.9347707094926
 21
707.2580385020176
  0
LINE
  8
_0-0_
  6
CONTINUOUS
 62
    6
 10
1316.792635085762
 20
742.2580385020176
 11
1351.792635085762
 21
707.2580385020176
  0
LINE
  8
_0-0_
  6
CONTINUOUS
 62
    6
 10
1308.7114099596151
 20
736.1971280044329
 11
1337.6504994620295
 21
707.25803850201942
  0
LINE
  8
_0-0_
  6
CONTINUOUS
 62
    6
 10
1308.7114099596142
 20
722.0549923807032
 11
1323.5083638382989
 21
707.2580385020176
  0
LINE
  8
_0-0_
  6
CONTINUOUS
 62
    6
 10
1308.7114099596147
 20
707.91285675697077
 11
1309.3662282145669
 21
707.25803850201851
  0
LINE
  8
_0-0_
  6
CONTINUOUS
 62
    6
 10
1308.7114099596147
 20
742.25803850201851
 11
1308.7114099596147
 21
707.25803850201851
  0
LINE
  8
_0-0_
  6
CONTINUOUS
 62
    1
 10
1284.7114099596147
 20
791.95652331185397
 11
1285.3971422658115
 21
792.64225561805074
  0
LINE
  8
_0-0_
  6
CONTINUOUS
 62
    1
 10
1284.7114099596147
 20
791.95652331185397
 11
1285.3971422658115
 21
791.27079100565629
  0
LINE
  8
_0-0_
  6
DASHED1
 62
    1
 10
1285.3971422658115
 20
792.64225561805074
 11
1285.9614099596147
 21
793.20652331185397
  0
LINE
  8
_0-0_
  6
DASHED1
 62
    1
 10
1285.3971422658115
 20
791.27079100565629
 11
1285.9614099596147
 21
790.70652331185397
  0
LINE
  8
_0-0_
  6
CONTINUOUS
 62
    1
 10
1284.8667220095422
 20
788.99299285793882
 11
1284.749127488366
 21
791.23682999022844
  0
LINE
  8
_0-0_
  6
CONTINUOUS
 62
    1
 10
1284.749127488366
 20
792.6762166334795
 11
1284.8667220095422
 21
794.92005376576822
  0
LINE
  8
_0-0_
  6
CONTINUOUS
 62
    4
 10
1361.9673359688495
 20
759.25803850201851
 11
1369.4956812070768
 21
759.25803850201851
  0
LINE
  8
_0-0_
  6
CONTINUOUS
 62
    7
 10
1405.8241083318226
 20
749.25803850201851
 11
1405.8241083318226
 21
748.25803850201851
  0
LINE
  8
_0-0_
  6
CONTINUOUS
 62
    7
 10
1337.8241083318226
 20
750.25803850201851
 11
1337.8241083318226
 21
751.25803850201851
  0
LINE
  8
_0-0_
  6
CONTINUOUS
 62
    7
 10
1309.7114099596147
 20
807.54230974948064
 11
1311.7114099596147
 21
807.54230974948064
  0
LINE
  8
_0-0_
  6
CONTINUOUS
 62
    7
 10
1310.7114099596147
 20
777.3707368742264
 11
1311.7114099596147
 21
777.3707368742264
  0
LINE
  8
_0-0_
  6
CONTINUOUS
 62
    1
 10
1293.7114099596147
 20
789.45652331185397
 11
1284.8667220095422
 21
788.99299285793882
  0
LINE
  8
_0-0_
  6
CONTINUOUS
 62
    1
 10
1310.7114099596147
 20
789.45652331185397
 11
1310.7114099596147
 21
784.45652331185397
  0
LINE
  8
_0-0_
  6
CONTINUOUS
 62
    1
 10
1310.7114099596147
 20
794.45652331185397
 11
1310.7114099596147
 21
799.45652331185397
  0
LINE
  8
_0-0_
  6
CONTINUOUS
 62
    1
 10
1312.7114099596147
 20
793.7813520709426
 11
1312.7114099596147
 21
790.13169455276352
  0
LINE
  8
_0-0_
  6
CONTINUOUS
 62
    1
 10
1312.7114099596147
 20
793.78135207094351
 11
1312.7114099596147
 21
793.78135207094351
  0
LINE
  8
_0-0_
  6
CONTINUOUS
 62
    1
 10
1312.7114099596147
 20
793.78135207094351
 11
1311.8333439174278
 21
797.15713310399678
  0
LINE
  8
_0-0_
  6
CONTINUOUS
 62
    1
 10
1311.8333439174278
 20
797.15713310399678
 11
1310.7114099596147
 21
799.45652331185397
  0
LINE
  8
_0-0_
  6
CONTINUOUS
 62
    1
 10
1310.7114099596147
 20
784.45652331185397
 11
1310.7114099596147
 21
784.45652331185397
  0
LINE
  8
_0-0_
  6
CONTINUOUS
 62
    1
 10
1310.7114099596147
 20
784.45652331185397
 11
1312.1769277272206
 21
787.7308619978005
  0
LINE
  8
_0-0_
  6
CONTINUOUS
 62
    1
 10
1312.1769277272206
 20
787.7308619978005
 11
1312.7114099596147
 21
790.13169455276443
  0
LINE
  8
_0-0_
  6
CONTINUOUS
 62
    1
 10
1312.8797385791909
 20
790.47781088097975
 11
1312.8797385791909
 21
790.47781088097975
  0
LINE
  8
_0-0_
  6
CONTINUOUS
 62
    1
 10
1312.8797385791909
 20
790.47781088097975
 11
1312.7114099596147
 21
790.70652331185397
  0
LINE
  8
_0-0_
  6
CONTINUOUS
 62
    1
 10
1312.7114099596147
 20
793.20652331185397
 11
1312.7114099596147
 21
793.20652331185397
  0
LINE
  8
_0-0_
  6
CONTINUOUS
 62
    1
 10
1312.7114099596147
 20
793.20652331185397
 11
1312.8797385791909
 21
793.4352357427282
  0
LINE
  8
_0-0_
  6
CONTINUOUS
 62
    1
 10
1312.8797385791909
 20
790.47781088097963
 11
1312.8797385791909
 21
790.47781088097963
  0
LINE
  8
_0-0_
  6
CONTINUOUS
 62
    1
 10
1312.8797385791909
 20
790.47781088097963
 11
1312.9092782540915
 21
790.73411550976209
  0
LINE
  8
_0-0_
  6
CONTINUOUS
 62
    1
 10
1312.9092782540915
 20
790.73411550976209
 11
1312.9328058009905
 21
791.02756238104291
  0
LINE
  8
_0-0_
  6
CONTINUOUS
 62
    1
 10
1312.9328058009905
 20
791.02756238104291
 11
1312.9496063472811
 21
791.34923526012949
  0
LINE
  8
_0-0_
  6
CONTINUOUS
 62
    1
 10
1312.9496063472811
 20
791.34923526012949
 11
1312.9591694168657
 21
791.68936027936513
  0
LINE
  8
_0-0_
  6
CONTINUOUS
 62
    1
 10
1312.9591694168657
 20
791.68936027936513
 11
1312.961204440714
 21
792.0376029121519
  0
LINE
  8
_0-0_
  6
CONTINUOUS
 62
    1
 10
1312.961204440714
 20
792.0376029121519
 11
1312.9556495856564
 21
792.3833819823119
  0
LINE
  8
_0-0_
  6
CONTINUOUS
 62
    1
 10
1312.9556495856564
 20
792.3833819823119
 11
1312.9426736331525
 21
792.71619116777094
  0
LINE
  8
_0-0_
  6
CONTINUOUS
 62
    1
 10
1312.9426736331525
 20
792.71619116777094
 11
1312.9226708509534
 21
793.02591822983845
  0
LINE
  8
_0-0_
  6
CONTINUOUS
 62
    1
 10
1312.9226708509534
 20
793.02591822983845
 11
1312.8962490134741
 21
793.3031522684629
  0
LINE
  8
_0-0_
  6
CONTINUOUS
 62
    1
 10
1312.8962490134741
 20
793.3031522684629
 11
1312.8797385791909
 21
793.4352357427282
  0
LINE
  8
_0-0_
  6
DASHED1
 62
    1
 10
1312.7114099596147
 20
793.20652331185397
 11
1285.9614099596147
 21
793.20652331185397
  0
LINE
  8
_0-0_
  6
DASHED1
 62
    1
 10
1312.7114099596147
 20
790.70652331185397
 11
1285.9614099596147
 21
790.70652331185397
  0
LINE
  8
_0-0_
  6
CONTINUOUS
 62
    1
 10
1293.7114099596147
 20
794.45652331185397
 11
1310.7114099596147
 21
794.45652331185397
  0
LINE
  8
_0-0_
  6
CONTINUOUS
 62
    1
 10
1293.7114099596147
 20
794.45652331185397
 11
1284.8667220095422
 21
794.92005376576822
  0
LINE
  8
_0-0_
  6
CONTINUOUS
 62
    1
 10
1293.7114099596147
 20
792.20652331185397
 11
1284.749127488366
 21
792.6762166334795
  0
LINE
  8
_0-0_
  6
CONTINUOUS
 62
    1
 10
1293.7114099596147
 20
789.45652331185397
 11
1310.7114099596147
 21
789.45652331185397
  0
LINE
  8
_0-0_
  6
CONTINUOUS
 62
    1
 10
1293.7114099596147
 20
791.70652331185397
 11
1284.749127488366
 21
791.23682999022844
  0
LINE
  8
_0-0_
  6
CONTINUOUS
 62
    1
 10
1293.7114099596147
 20
791.70652331185397
 11
1293.7114099596147
 21
792.20652331185397
  0
LINE
  8
_0-0_
  6
CONTINUOUS
 62
    7
 10
1311.7114099596147
 20
777.3707368742264
 11
1311.7114099596147
 21
784.20680483820456
  0
LINE
  8
_0-0_
  6
CONTINUOUS
 62
    7
 10
1311.7114099596147
 20
799.70624178550156
 11
1311.7114099596147
 21
807.54230974948064
  0
LINE
  8
_0-0_
  6
CONTINUOUS
 62
    7
 10
1311.7114099596147
 20
784.20680483820547
 11
1311.7114099596147
 21
784.20680483820547
  0
LINE
  8
_0-0_
  6
CONTINUOUS
 62
    7
 10
1311.7114099596147
 20
784.20680483820547
 11
1313.1958005377487
 21
787.65479108156228
  0
LINE
  8
_0-0_
  6
CONTINUOUS
 62
    7
 10
1313.1958005377487
 20
787.65479108156228
 11
1313.8147073219634
 21
791.23348328195493
  0
LINE
  8
_0-0_
  6
CONTINUOUS
 62
    7
 10
1313.8147073219634
 20
791.23348328195493
 11
1313.5493251428022
 21
794.83414468778028
  0
LINE
  8
_0-0_
  6
CONTINUOUS
 62
    7
 10
1313.5493251428022
 20
794.83414468778028
 11
1312.4077175034888
 21
798.34737102424469
  0
LINE
  8
_0-0_
  6
CONTINUOUS
 62
    7
 10
1312.4077175034888
 20
798.34737102424469
 11
1311.7114099596147
 21
799.70624178550247
  0
LINE
  8
_0-0_
  6
CENTER2
 62
    1
 10
1318.2016377246227
 20
791.95652331185397
 11
1280.424585512179
 21
791.95652331185397
  0
LINE
  8
_0-0_
  6
CONTINUOUS
 62
    4
 10
1316.7114099596147
 20
779.85601824846549
 11
1316.7114099596147
 21
783.04190776636665
  0
LINE
  8
_0-0_
  6
CONTINUOUS
 62
    4
 10
1316.7114099596147
 20
783.04190776636767
 11
1316.7114099596147
 21
783.04190776636767
  0
LINE
  8
_0-0_
  6
CONTINUOUS
 62
    4
 10
1316.7114099596147
 20
783.04190776636767
 11
1318.2817176718102
 21
787.36019639968185
  0
LINE
  8
_0-0_
  6
CONTINUOUS
 62
    4
 10
1318.2817176718102
 20
787.36019639968185
 11
1318.8320085715659
 21
791.81814210036885
  0
LINE
  8
_0-0_
  6
CONTINUOUS
 62
    4
 10
1318.8320085715659
 20
791.81814210036885
 11
1318.3455623483537
 21
796.28029244414245
  0
LINE
  8
_0-0_
  6
CONTINUOUS
 62
    4
 10
1318.3455623483537
 20
796.28029244414245
 11
1316.8371594245118
 21
800.61106725076434
  0
LINE
  8
_0-0_
  6
CONTINUOUS
 62
    4
 10
1316.8371594245118
 20
800.61106725076434
 11
1316.7114099596147
 21
800.87113885734027
  0
LINE
  8
_0-0_
  6
CONTINUOUS
 62
    4
 10
1316.7114099596147
 20
800.87113885733947
 11
1316.7114099596147
 21
809.04230974948064
  0
LINE
  8
_0-0_
  6
CONTINUOUS
 62
    4
 10
1316.7114099596147
 20
809.04230974948064
 11
1314.7114099596147
 21
811.04230974948064
  0
LINE
  8
_0-0_
  6
CONTINUOUS
 62
    7
 10
1367.9956812070768
 20
749.25803850201851
 11
1367.9956812070768
 21
751.25803850201851
  0
LINE
  8
_0-0_
  6
CONTINUOUS
 62
    7
 10
1337.8241083318226
 20
751.25803850201851
 11
1344.6601762958007
 21
751.25803850201851
  0
LINE
  8
_0-0_
  6
CONTINUOUS
 62
    7
 10
1360.1596132430986
 20
751.25803850201851
 11
1367.9956812070768
 21
751.25803850201851
  0
LINE
  8
_0-0_
  6
CONTINUOUS
 62
    7
 10
1360.1596132430977
 20
751.25803850201851
 11
1360.1596132430977
 21
751.25803850201851
  0
LINE
  8
_0-0_
  6
CONTINUOUS
 62
    7
 10
1360.1596132430977
 20
751.25803850201851
 11
1356.7116269997409
 21
752.74242908015265
  0
LINE
  8
_0-0_
  6
CONTINUOUS
 62
    7
 10
1356.7116269997409
 20
752.74242908015265
 11
1353.1329347993483
 21
753.36133586436722
  0
LINE
  8
_0-0_
  6
CONTINUOUS
 62
    7
 10
1353.1329347993483
 20
753.36133586436722
 11
1349.5322733935229
 21
753.09595368520593
  0
LINE
  8
_0-0_
  6
CONTINUOUS
 62
    7
 10
1349.5322733935229
 20
753.09595368520593
 11
1346.0190470570585
 21
751.95434604589275
  0
LINE
  8
_0-0_
  6
CONTINUOUS
 62
    7
 10
1346.0190470570585
 20
751.95434604589275
 11
1344.6601762958007
 21
751.25803850201851
  0
LINE
  8
_0-0_
  6
CONTINUOUS
 62
    4
 10
1316.7114099596147
 20
779.85601824846549
 11
1337.3093897060617
 21
759.25803850201851
  0
LINE
  8
_0-0_
  6
CONTINUOUS
 62
    4
 10
1337.3093897060617
 20
759.25803850201851
 11
1342.8524535700499
 21
759.25803850201851
  0
LINE
  8
_0-0_
  6
CONTINUOUS
 62
    4
 10
1361.9673359688493
 20
759.25803850201851
 11
1361.9673359688493
 21
759.25803850201851
  0
LINE
  8
_0-0_
  6
CONTINUOUS
 62
    4
 10
1361.9673359688493
 20
759.25803850201851
 11
1357.1256965535206
 21
760.87404796574765
  0
LINE
  8
_0-0_
  6
CONTINUOUS
 62
    4
 10
1357.1256965535206
 20
760.87404796574765
 11
1352.1407698872938
 21
761.37749851051615
  0
LINE
  8
_0-0_
  6
CONTINUOUS
 62
    4
 10
1352.1407698872938
 20
761.37749851051615
 11
1347.1640204444277
 21
760.75309304627945
  0
LINE
  8
_0-0_
  6
CONTINUOUS
 62
    4
 10
1347.1640204444277
 20
760.75309304627945
 11
1342.8524535700492
 21
759.25803850201851
  0
LINE
  8
_0-0_
  6
CONTINUOUS
 62
    4
 10
1369.4956812070768
 20
759.25803850201851
 11
1371.4956812070768
 21
757.25803850201851
  0
LINE
  8
_0-0_
  6
CONTINUOUS
 62
  136
 10
1308.7114099596147
 20
776.54230974948064
 11
1336.9956812070768
 21
748.25803850201851
  0
LINE
  8
_0-0_
  6
CONTINUOUS
 62
  136
 10
1336.9956812070768
 20
748.25803850201851
 11
1366.9956812070768
 21
748.25803850201851
  0
LINE
  8
_0-0_
  6
CONTINUOUS
 62
  136
 10
1366.9956812070768
 20
748.25803850201851
 11
1366.9956812070768
 21
750.25803850201851
  0
LINE
  8
_0-0_
  6
CONTINUOUS
 62
  136
 10
1308.7114099596147
 20
806.54230974948064
 11
1308.7114099596147
 21
776.54230974948064
  0
LINE
  8
_0-0_
  6
CONTINUOUS
 62
  136
 10
1308.7114099596147
 20
806.54230974948064
 11
1310.7114099596147
 21
806.54230974948064
  0
LINE
  8
_0-0_
  6
CONTINUOUS
 62
  136
 10
1310.7114099596147
 20
806.54230974948064
 11
1310.7114099596147
 21
777.3707368742264
  0
LINE
  8
_0-0_
  6
CONTINUOUS
 62
  136
 10
1337.8241083318226
 20
750.25803850201851
 11
1366.9956812070768
 21
750.25803850201851
  0
LINE
  8
_0-0_
  6
DASHED1
 62
    1
 10
1351.1598947694492
 20
752.25803850201851
 11
1351.1598947694492
 21
681.50803850201851
  0
LINE
  8
_0-0_
  6
CONTINUOUS
 62
    1
 10
1350.5850660103597
 20
752.25803850201851
 11
1354.2347235285388
 21
752.25803850201851
  0
LINE
  8
_0-0_
  6
CONTINUOUS
 62
    1
 10
1350.5850660103597
 20
752.25803850201851
 11
1350.5850660103597
 21
752.25803850201851
  0
LINE
  8
_0-0_
  6
CONTINUOUS
 62
    1
 10
1350.5850660103597
 20
752.25803850201851
 11
1347.2092849773064
 21
751.37997245983161
  0
LINE
  8
_0-0_
  6
CONTINUOUS
 62
    1
 10
1347.2092849773064
 20
751.37997245983161
 11
1344.9098947694492
 21
750.25803850201851
  0
LINE
  8
_0-0_
  6
CONTINUOUS
 62
    1
 10
1353.8886072003236
 20
752.42636712159458
 11
1353.8886072003236
 21
752.42636712159458
  0
LINE
  8
_0-0_
  6
CONTINUOUS
 62
    1
 10
1353.8886072003236
 20
752.42636712159458
 11
1353.6598947694492
 21
752.25803850201851
  0
LINE
  8
_0-0_
  6
CONTINUOUS
 62
    1
 10
1351.1598947694492
 20
752.25803850201851
 11
1351.1598947694492
 21
752.25803850201851
  0
LINE
  8
_0-0_
  6
CONTINUOUS
 62
    1
 10
1351.1598947694492
 20
752.25803850201851
 11
1350.9311823385749
 21
752.42636712159458
  0
LINE
  8
_0-0_
  6
CONTINUOUS
 62
    1
 10
1353.8886072003236
 20
752.42636712159458
 11
1353.8886072003236
 21
752.42636712159458
  0
LINE
  8
_0-0_
  6
CONTINUOUS
 62
    1
 10
1353.8886072003236
 20
752.42636712159458
 11
1353.6323025715412
 21
752.45590679649524
  0
LINE
  8
_0-0_
  6
CONTINUOUS
 62
    1
 10
1353.6323025715412
 20
752.45590679649524
 11
1353.3388557002604
 21
752.47943434339436
  0
LINE
  8
_0-0_
  6
CONTINUOUS
 62
    1
 10
1353.3388557002604
 20
752.47943434339436
 11
1353.0171828211737
 21
752.49623488968507
  0
LINE
  8
_0-0_
  6
CONTINUOUS
 62
    1
 10
1353.0171828211737
 20
752.49623488968507
 11
1352.6770578019382
 21
752.50579795926967
  0
LINE
  8
_0-0_
  6
CONTINUOUS
 62
    1
 10
1352.6770578019382
 20
752.50579795926967
 11
1352.3288151691513
 21
752.50783298311796
  0
LINE
  8
_0-0_
  6
CONTINUOUS
 62
    1
 10
1352.3288151691513
 20
752.50783298311796
 11
1351.9830360989913
 21
752.5022781280602
  0
LINE
  8
_0-0_
  6
CONTINUOUS
 62
    1
 10
1351.9830360989913
 20
752.5022781280602
 11
1351.6502269135322
 21
752.48930217555642
  0
LINE
  8
_0-0_
  6
CONTINUOUS
 62
    1
 10
1351.6502269135322
 20
752.48930217555642
 11
1351.3404998514648
 21
752.46929939335712
  0
LINE
  8
_0-0_
  6
CONTINUOUS
 62
    1
 10
1351.3404998514648
 20
752.46929939335712
 11
1351.0632658128402
 21
752.44287755587777
  0
LINE
  8
_0-0_
  6
CONTINUOUS
 62
    1
 10
1351.0632658128402
 20
752.44287755587777
 11
1350.9311823385749
 21
752.42636712159469
  0
LINE
  8
_0-0_
  6
CONTINUOUS
 62
    1
 10
1349.9098947694492
 20
750.23089828382058
 11
1349.9098947694492
 21
750.25803850201851
  0
LINE
  8
_0-0_
  6
CONTINUOUS
 62
    1
 10
1359.9098947694492
 20
750.25803850201851
 11
1359.9098947694492
 21
750.25803850201851
  0
LINE
  8
_0-0_
  6
CONTINUOUS
 62
    1
 10
1359.9098947694492
 20
750.25803850201851
 11
1359.778272988885
 21
750.33473082447949
  0
LINE
  8
_0-0_
  6
CONTINUOUS
 62
    1
 10
1359.778272988885
 20
750.33473082447949
 11
1359.778272988885
 21
750.33473082447949
  0
LINE
  8
_0-0_
  6
CONTINUOUS
 62
    1
 10
1359.778272988885
 20
750.33473082447949
 11
1356.4966116961123
 21
751.76643220290021
  0
LINE
  8
_0-0_
  6
CONTINUOUS
 62
    1
 10
1356.4966116961123
 20
751.76643220290021
 11
1354.2347235285388
 21
752.25803850201851
  0
LINE
  8
_0-0_
  6
CONTINUOUS
 62
    1
 10
1359.9098947694492
 20
750.25803850201851
 11
1344.9098947694492
 21
750.25803850201851
  0
LINE
  8
_0-0_
  6
CONTINUOUS
 62
    1
 10
1354.9098947694492
 20
689.25803850201851
 11
1355.3734252233644
 21
680.413350551946
  0
LINE
  8
_0-0_
  6
CONTINUOUS
 62
    1
 10
1352.4098947694492
 20
680.25803850201851
 11
1351.7241624632525
 21
680.94377080821528
  0
LINE
  8
_0-0_
  6
CONTINUOUS
 62
    1
 10
1352.4098947694492
 20
680.25803850201851
 11
1353.0956270756465
 21
680.94377080821528
  0
LINE
  8
_0-0_
  6
DASHED1
 62
    1
 10
1351.7241624632525
 20
680.94377080821528
 11
1351.1598947694492
 21
681.50803850201851
  0
LINE
  8
_0-0_
  6
CONTINUOUS
 62
    1
 10
1349.9098947694492
 20
689.25803850201851
 11
1349.446364315535
 21
680.413350551946
  0
LINE
  8
_0-0_
  6
CONTINUOUS
 62
    1
 10
1352.1598947694492
 20
689.25803850201851
 11
1351.6902014478237
 21
680.29575603076978
  0
LINE
  8
_0-0_
  6
CONTINUOUS
 62
    1
 10
1352.6598947694492
 20
689.25803850201851
 11
1353.1295880910748
 21
680.29575603076978
  0
LINE
  8
_0-0_
  6
DASHED1
 62
    1
 10
1353.0956270756465
 20
680.94377080821528
 11
1353.6598947694492
 21
681.50803850201851
  0
LINE
  8
_0-0_
  6
CONTINUOUS
 62
    1
 10
1355.3734252233644
 20
680.413350551946
 11
1353.1295880910748
 21
680.29575603076978
  0
LINE
  8
_0-0_
  6
CONTINUOUS
 62
    1
 10
1351.6902014478237
 20
680.29575603076978
 11
1349.446364315535
 21
680.413350551946
  0
LINE
  8
_0-0_
  6
CONTINUOUS
 62
    1
 10
1352.6598947694492
 20
689.25803850201851
 11
1352.1598947694492
 21
689.25803850201851
  0
LINE
  8
_0-0_
  6
DASHED1
 62
    1
 10
1353.6598947694492
 20
752.25803850201851
 11
1353.6598947694492
 21
681.50803850201851
  0
LINE
  8
_0-0_
  6
CENTER2
 62
    1
 10
1352.4098947694492
 20
760.81312891351467
 11
1352.4098947694492
 21
675.72768526866298
  0
LINE
  8
_0-0_
  6
CONTINUOUS
 62
    1
 10
1354.9098947694492
 20
689.25803850201851
 11
1354.9098947694492
 21
750.25803850201851
  0
LINE
  8
_0-0_
  6
CONTINUOUS
 62
    1
 10
1349.9098947694492
 20
689.25803850201851
 11
1349.9098947694492
 21
750.25803850201851
  0
LINE
  8
_0-0_
  6
CONTINUOUS
 62
    7
 10
1309.7114099596147
 20
807.54230974948064
 11
1309.7114099596147
 21
845.3707368742264
  0
LINE
  8
_0-0_
  6
CONTINUOUS
 62
    7
 10
1309.7114099596147
 20
845.3707368742264
 11
1308.7114099596147
 21
845.3707368742264
  0
LINE
  8
_0-0_
  6
CONTINUOUS
 62
    1
 10
1357.4098947694492
 20
707.25803850201851
 11
1347.4098947694492
 21
707.25803850201851
  0
LINE
  8
_0-0_
  6
CONTINUOUS
 62
    1
 10
1347.4098947694492
 20
707.25803850201851
 11
1347.4098947694492
 21
742.25803850201851
  0
LINE
  8
_0-0_
  6
CONTINUOUS
 62
    1
 10
1347.4098947694492
 20
742.25803850201851
 11
1357.4098947694492
 21
742.25803850201851
  0
LINE
  8
_0-0_
  6
CONTINUOUS
 62
    1
 10
1357.4098947694492
 20
742.25803850201851
 11
1357.4098947694492
 21
707.25803850201851
  0
LINE
  8
_0-0_
  6
CONTINUOUS
 62
    1
 10
1348.4098947694492
 20
707.25803850201851
 11
1348.4098947694492
 21
742.25803850201851
  0
LINE
  8
_0-0_
  6
CONTINUOUS
 62
    1
 10
1356.4098947694492
 20
742.25803850201851
 11
1356.4098947694492
 21
707.25803850201851
  0
TEXT
  8
_0-0_
 62
    7
 10
1561.9005065316815
 20
802.94634000526571
 40
30
 41
1
 50
0
  1
断熱材
  0
LINE
  8
_0-0_
  6
CONTINUOUS
 62
    7
 10
992.14569871215383
 20
749.25803850201851
 11
954.31727158740807
 21
749.25803850201851
  0
LINE
  8
_0-0_
  6
CONTINUOUS
 62
  136
 10
1049.4299699596158
 20
777.3707368742264
 11
1022.3172715874081
 21
750.25803850201851
  0
LINE
  8
_0-0_
  6
CONTINUOUS
 62
    6
 10
1051.4299699596163
 20
734.73134781045724
 11
1043.9032792680541
 21
742.25803850201942
  0
LINE
  8
_0-0_
  6
CONTINUOUS
 62
    6
 10
1051.4299699596163
 20
720.58921218672572
 11
1029.7611436443231
 21
742.25803850201942
  0
LINE
  8
_0-0_
  6
CONTINUOUS
 62
    6
 10
1050.6190080205938
 20
707.2580385020176
 11
1015.6190080205939
 21
742.2580385020176
  0
LINE
  8
_0-0_
  6
CONTINUOUS
 62
    6
 10
1036.4768723968609
 20
707.25803850201942
 11
1001.476872396861
 21
742.25803850201942
  0
LINE
  8
_0-0_
  6
CONTINUOUS
 62
    6
 10
1022.3347367731304
 20
707.25803850201942
 11
987.33473677313043
 21
742.25803850201942
  0
LINE
  8
_0-0_
  6
CONTINUOUS
 62
    6
 10
1008.1926011494007
 20
707.25803850201851
 11
973.19260114940118
 21
742.2580385020176
  0
LINE
  8
_0-0_
  6
CONTINUOUS
 62
    6
 10
994.0504655256683
 20
707.25803850201942
 11
959.0504655256683
 21
742.25803850201942
  0
LINE
  8
_0-0_
  6
CONTINUOUS
 62
    6
 10
979.90832990193769
 20
707.25803850201942
 11
944.90832990193769
 21
742.25803850201942
  0
LINE
  8
_0-0_
  6
CONTINUOUS
 62
    6
 10
965.76619427820799
 20
707.2580385020176
 11
930.76619427820799
 21
742.25803850201851
  0
LINE
  8
_0-0_
  6
CONTINUOUS
 62
    6
 10
951.62405865447602
 20
707.25803850201851
 11
916.62405865447556
 21
742.25803850201942
  0
LINE
  8
_0-0_
  6
CONTINUOUS
 62
    6
 10
937.48192303074495
 20
707.25803850201942
 11
902.4819230307445
 21
742.25803850201942
  0
LINE
  8
_0-0_
  6
CONTINUOUS
 62
    6
 10
923.33978740701525
 20
707.25803850201851
 11
888.33978740701525
 21
742.2580385020176
  0
LINE
  8
_0-0_
  6
CONTINUOUS
 62
    6
 10
909.19765178328328
 20
707.25803850201942
 11
874.19765178328328
 21
742.25803850201851
  0
LINE
  8
_0-0_
  6
CONTINUOUS
 62
    6
 10
895.05551615955176
 20
707.25803850201942
 11
860.05551615955176
 21
742.25803850201942
  0
LINE
  8
_0-0_
  6
CONTINUOUS
 62
    6
 10
880.91338053582251
 20
707.25803850201851
 11
845.91338053582251
 21
742.25803850201851
  0
LINE
  8
_0-0_
  6
CONTINUOUS
 62
    6
 10
866.77124491209054
 20
707.25803850201851
 11
831.77124491209054
 21
742.25803850201851
  0
LINE
  8
_0-0_
  6
CONTINUOUS
 62
    6
 10
859.50098172496757
 20
742.25803850201851
 11
824.50098172496712
 21
707.25803850201851
  0
LINE
  8
_0-0_
  6
CONTINUOUS
 62
    6
 10
873.64311734869773
 20
742.2580385020176
 11
838.64311734869818
 21
707.25803850201851
  0
LINE
  8
_0-0_
  6
CONTINUOUS
 62
    6
 10
887.78525297243016
 20
742.25803850201942
 11
852.78525297243016
 21
707.25803850201942
  0
LINE
  8
_0-0_
  6
CONTINUOUS
 62
    6
 10
901.92738859615986
 20
742.25803850201851
 11
866.92738859615986
 21
707.25803850201851
  0
LINE
  8
_0-0_
  6
CONTINUOUS
 62
    6
 10
916.06952421989047
 20
742.2580385020176
 11
881.06952421989092
 21
707.25803850201942
  0
LINE
  8
_0-0_
  6
CONTINUOUS
 62
    6
 10
930.2116598436229
 20
742.25803850201942
 11
895.2116598436229
 21
707.25803850201942
  0
LINE
  8
_0-0_
  6
CONTINUOUS
 62
    6
 10
944.3537954673526
 20
742.2580385020176
 11
909.35379546735305
 21
707.2580385020176
  0
LINE
  8
_0-0_
  6
CONTINUOUS
 62
    6
 10
958.49593109108321
 20
742.2580385020176
 11
923.49593109108321
 21
707.2580385020176
  0
LINE
  8
_0-0_
  6
CONTINUOUS
 62
    6
 10
972.63806671481564
 20
742.25803850201942
 11
937.63806671481564
 21
707.25803850201942
  0
LINE
  8
_0-0_
  6
CONTINUOUS
 62
    6
 10
986.78020233854534
 20
742.2580385020176
 11
951.78020233854579
 21
707.2580385020176
  0
LINE
  8
_0-0_
  6
CONTINUOUS
 62
    6
 10
1000.9223379622759
 20
742.2580385020176
 11
965.9223379622764
 21
707.25803850201942
  0
LINE
  8
_0-0_
  6
CONTINUOUS
 62
    6
 10
1015.0644735860084
 20
742.25803850201942
 11
980.06447358600838
 21
707.25803850201942
  0
LINE
  8
_0-0_
  6
CONTINUOUS
 62
    6
 10
1029.206609209738
 20
742.2580385020176
 11
994.20660920973808
 21
707.2580385020176
  0
LINE
  8
_0-0_
  6
CONTINUOUS
 62
    6
 10
1043.3487448334686
 20
742.2580385020176
 11
1008.3487448334687
 21
707.2580385020176
  0
LINE
  8
_0-0_
  6
CONTINUOUS
 62
    6
 10
1051.4299699596154
 20
736.1971280044329
 11
1022.4908804572011
 21
707.25803850201942
  0
LINE
  8
_0-0_
  6
CONTINUOUS
 62
    6
 10
1051.4299699596163
 20
722.0549923807032
 11
1036.6330160809316
 21
707.2580385020176
  0
LINE
  8
_0-0_
  6
CONTINUOUS
 62
    6
 10
1051.4299699596158
 20
707.91285675697077
 11
1050.7751517046636
 21
707.25803850201851
  0
LINE
  8
_0-0_
  6
CONTINUOUS
 62
    6
 10
1051.4299699596158
 20
742.25803850201851
 11
1051.4299699596158
 21
707.25803850201851
  0
LINE
  8
_0-0_
  6
CONTINUOUS
 62
    1
 10
1075.4299699596158
 20
791.95652331185397
 11
1074.7442376534191
 21
792.64225561805074
  0
LINE
  8
_0-0_
  6
CONTINUOUS
 62
    1
 10
1075.4299699596158
 20
791.95652331185397
 11
1074.7442376534191
 21
791.27079100565629
  0
LINE
  8
_0-0_
  6
DASHED1
 62
    1
 10
1074.7442376534191
 20
792.64225561805074
 11
1074.1799699596158
 21
793.20652331185397
  0
LINE
  8
_0-0_
  6
DASHED1
 62
    1
 10
1074.7442376534191
 20
791.27079100565629
 11
1074.1799699596158
 21
790.70652331185397
  0
LINE
  8
_0-0_
  6
CONTINUOUS
 62
    1
 10
1075.2746579096884
 20
788.99299285793882
 11
1075.3922524308646
 21
791.23682999022844
  0
LINE
  8
_0-0_
  6
CONTINUOUS
 62
    1
 10
1075.3922524308646
 20
792.6762166334795
 11
1075.2746579096884
 21
794.92005376576822
  0
LINE
  8
_0-0_
  6
CONTINUOUS
 62
    4
 10
998.17404395038113
 20
759.25803850201851
 11
990.64569871215383
 21
759.25803850201851
  0
LINE
  8
_0-0_
  6
CONTINUOUS
 62
    7
 10
954.31727158740807
 20
749.25803850201851
 11
954.31727158740807
 21
748.25803850201851
  0
LINE
  8
_0-0_
  6
CONTINUOUS
 62
    7
 10
1022.3172715874081
 20
750.25803850201851
 11
1022.3172715874081
 21
751.25803850201851
  0
LINE
  8
_0-0_
  6
CONTINUOUS
 62
    7
 10
1050.4299699596158
 20
807.54230974948064
 11
1048.4299699596158
 21
807.54230974948064
  0
LINE
  8
_0-0_
  6
CONTINUOUS
 62
    7
 10
1049.4299699596158
 20
777.3707368742264
 11
1048.4299699596158
 21
777.3707368742264
  0
LINE
  8
_0-0_
  6
CONTINUOUS
 62
    1
 10
1066.4299699596158
 20
789.45652331185397
 11
1075.2746579096884
 21
788.99299285793882
  0
LINE
  8
_0-0_
  6
CONTINUOUS
 62
    1
 10
1049.4299699596158
 20
789.45652331185397
 11
1049.4299699596158
 21
784.45652331185397
  0
LINE
  8
_0-0_
  6
CONTINUOUS
 62
    1
 10
1049.4299699596158
 20
794.45652331185397
 11
1049.4299699596158
 21
799.45652331185397
  0
LINE
  8
_0-0_
  6
CONTINUOUS
 62
    1
 10
1047.4299699596158
 20
793.7813520709426
 11
1047.4299699596158
 21
790.13169455276352
  0
LINE
  8
_0-0_
  6
CONTINUOUS
 62
    1
 10
1049.4299699596158
 20
799.45652331185397
 11
1049.4299699596158
 21
799.45652331185397
  0
LINE
  8
_0-0_
  6
CONTINUOUS
 62
    1
 10
1049.4299699596158
 20
799.45652331185397
 11
1047.96445219201
 21
796.18218462590744
  0
LINE
  8
_0-0_
  6
CONTINUOUS
 62
    1
 10
1047.96445219201
 20
796.18218462590744
 11
1047.4299699596158
 21
793.78135207094351
  0
LINE
  8
_0-0_
  6
CONTINUOUS
 62
    1
 10
1047.4299699596158
 20
790.13169455276443
 11
1047.4299699596158
 21
790.13169455276443
  0
LINE
  8
_0-0_
  6
CONTINUOUS
 62
    1
 10
1047.4299699596158
 20
790.13169455276443
 11
1048.3080360018027
 21
786.75591351971116
  0
LINE
  8
_0-0_
  6
CONTINUOUS
 62
    1
 10
1048.3080360018027
 20
786.75591351971116
 11
1049.4299699596158
 21
784.45652331185397
  0
LINE
  8
_0-0_
  6
CONTINUOUS
 62
    1
 10
1047.4299699596158
 20
790.70652331185397
 11
1047.4299699596158
 21
790.70652331185397
  0
LINE
  8
_0-0_
  6
CONTINUOUS
 62
    1
 10
1047.4299699596158
 20
790.70652331185397
 11
1047.2616413400397
 21
790.47781088097975
  0
LINE
  8
_0-0_
  6
CONTINUOUS
 62
    1
 10
1047.2616413400397
 20
793.4352357427282
 11
1047.2616413400397
 21
793.4352357427282
  0
LINE
  8
_0-0_
  6
CONTINUOUS
 62
    1
 10
1047.2616413400397
 20
793.4352357427282
 11
1047.4299699596158
 21
793.20652331185397
  0
LINE
  8
_0-0_
  6
CONTINUOUS
 62
    1
 10
1047.2616413400397
 20
793.4352357427282
 11
1047.2616413400397
 21
793.4352357427282
  0
LINE
  8
_0-0_
  6
CONTINUOUS
 62
    1
 10
1047.2616413400397
 20
793.4352357427282
 11
1047.232101665139
 21
793.17893111394574
  0
LINE
  8
_0-0_
  6
CONTINUOUS
 62
    1
 10
1047.232101665139
 20
793.17893111394574
 11
1047.20857411824
 21
792.88548424266492
  0
LINE
  8
_0-0_
  6
CONTINUOUS
 62
    1
 10
1047.20857411824
 20
792.88548424266492
 11
1047.1917735719494
 21
792.56381136357834
  0
LINE
  8
_0-0_
  6
CONTINUOUS
 62
    1
 10
1047.1917735719494
 20
792.56381136357834
 11
1047.1822105023648
 21
792.2236863443427
  0
LINE
  8
_0-0_
  6
CONTINUOUS
 62
    1
 10
1047.1822105023648
 20
792.2236863443427
 11
1047.1801754785165
 21
791.87544371155593
  0
LINE
  8
_0-0_
  6
CONTINUOUS
 62
    1
 10
1047.1801754785165
 20
791.87544371155593
 11
1047.1857303335742
 21
791.52966464139593
  0
LINE
  8
_0-0_
  6
CONTINUOUS
 62
    1
 10
1047.1857303335742
 20
791.52966464139593
 11
1047.198706286078
 21
791.19685545593688
  0
LINE
  8
_0-0_
  6
CONTINUOUS
 62
    1
 10
1047.198706286078
 20
791.19685545593688
 11
1047.2187090682771
 21
790.88712839386938
  0
LINE
  8
_0-0_
  6
CONTINUOUS
 62
    1
 10
1047.2187090682771
 20
790.88712839386938
 11
1047.2451309057565
 21
790.60989435524493
  0
LINE
  8
_0-0_
  6
CONTINUOUS
 62
    1
 10
1047.2451309057565
 20
790.60989435524493
 11
1047.2616413400397
 21
790.47781088097963
  0
LINE
  8
_0-0_
  6
DASHED1
 62
    1
 10
1047.4299699596158
 20
793.20652331185397
 11
1074.1799699596158
 21
793.20652331185397
  0
LINE
  8
_0-0_
  6
DASHED1
 62
    1
 10
1047.4299699596158
 20
790.70652331185397
 11
1074.1799699596158
 21
790.70652331185397
  0
LINE
  8
_0-0_
  6
CONTINUOUS
 62
    1
 10
1066.4299699596158
 20
794.45652331185397
 11
1049.4299699596158
 21
794.45652331185397
  0
LINE
  8
_0-0_
  6
CONTINUOUS
 62
    1
 10
1066.4299699596158
 20
794.45652331185397
 11
1075.2746579096884
 21
794.92005376576822
  0
LINE
  8
_0-0_
  6
CONTINUOUS
 62
    1
 10
1066.4299699596158
 20
792.20652331185397
 11
1075.3922524308646
 21
792.6762166334795
  0
LINE
  8
_0-0_
  6
CONTINUOUS
 62
    1
 10
1066.4299699596158
 20
789.45652331185397
 11
1049.4299699596158
 21
789.45652331185397
  0
LINE
  8
_0-0_
  6
CONTINUOUS
 62
    1
 10
1066.4299699596158
 20
791.70652331185397
 11
1075.3922524308646
 21
791.23682999022844
  0
LINE
  8
_0-0_
  6
CONTINUOUS
 62
    1
 10
1066.4299699596158
 20
791.70652331185397
 11
1066.4299699596158
 21
792.20652331185397
  0
LINE
  8
_0-0_
  6
CONTINUOUS
 62
    7
 10
1048.4299699596158
 20
777.3707368742264
 11
1048.4299699596158
 21
784.20680483820456
  0
LINE
  8
_0-0_
  6
CONTINUOUS
 62
    7
 10
1048.4299699596158
 20
799.70624178550156
 11
1048.4299699596158
 21
807.54230974948064
  0
LINE
  8
_0-0_
  6
CONTINUOUS
 62
    7
 10
1048.4299699596158
 20
799.70624178550247
 11
1048.4299699596158
 21
799.70624178550247
  0
LINE
  8
_0-0_
  6
CONTINUOUS
 62
    7
 10
1048.4299699596158
 20
799.70624178550247
 11
1046.9455793814818
 21
796.25825554214566
  0
LINE
  8
_0-0_
  6
CONTINUOUS
 62
    7
 10
1046.9455793814818
 20
796.25825554214566
 11
1046.3266725972671
 21
792.6795633417529
  0
LINE
  8
_0-0_
  6
CONTINUOUS
 62
    7
 10
1046.3266725972671
 20
792.6795633417529
 11
1046.5920547764283
 21
789.07890193592766
  0
LINE
  8
_0-0_
  6
CONTINUOUS
 62
    7
 10
1046.5920547764283
 20
789.07890193592766
 11
1047.7336624157417
 21
785.56567559946325
  0
LINE
  8
_0-0_
  6
CONTINUOUS
 62
    7
 10
1047.7336624157417
 20
785.56567559946325
 11
1048.4299699596158
 21
784.20680483820547
  0
LINE
  8
_0-0_
  6
CENTER2
 62
    1
 10
1041.9397421946078
 20
791.95652331185397
 11
1079.7167944070516
 21
791.95652331185397
  0
LINE
  8
_0-0_
  6
CONTINUOUS
 62
    4
 10
1043.4299699596158
 20
779.85601824846549
 11
1043.4299699596158
 21
783.04190776636665
  0
LINE
  8
_0-0_
  6
CONTINUOUS
 62
    4
 10
1043.4299699596158
 20
800.87113885734027
 11
1043.4299699596158
 21
800.87113885734027
  0
LINE
  8
_0-0_
  6
CONTINUOUS
 62
    4
 10
1043.4299699596158
 20
800.87113885734027
 11
1041.8596622474204
 21
796.55285022402609
  0
LINE
  8
_0-0_
  6
CONTINUOUS
 62
    4
 10
1041.8596622474204
 20
796.55285022402609
 11
1041.3093713476646
 21
792.0949045233391
  0
LINE
  8
_0-0_
  6
CONTINUOUS
 62
    4
 10
1041.3093713476646
 20
792.0949045233391
 11
1041.7958175708768
 21
787.6327541795655
  0
LINE
  8
_0-0_
  6
CONTINUOUS
 62
    4
 10
1041.7958175708768
 20
787.6327541795655
 11
1043.3042204947187
 21
783.30197937294361
  0
LINE
  8
_0-0_
  6
CONTINUOUS
 62
    4
 10
1043.3042204947187
 20
783.30197937294361
 11
1043.4299699596158
 21
783.04190776636767
  0
LINE
  8
_0-0_
  6
CONTINUOUS
 62
    4
 10
1043.4299699596158
 20
800.87113885733947
 11
1043.4299699596158
 21
809.04230974948064
  0
LINE
  8
_0-0_
  6
CONTINUOUS
 62
    4
 10
1043.4299699596158
 20
809.04230974948064
 11
1045.4299699596158
 21
811.04230974948064
  0
LINE
  8
_0-0_
  6
CONTINUOUS
 62
    7
 10
992.14569871215383
 20
749.25803850201851
 11
992.14569871215383
 21
751.25803850201851
  0
LINE
  8
_0-0_
  6
CONTINUOUS
 62
    7
 10
1022.3172715874081
 20
751.25803850201851
 11
1015.4812036234299
 21
751.25803850201851
  0
LINE
  8
_0-0_
  6
CONTINUOUS
 62
    7
 10
999.981766676132
 20
751.25803850201851
 11
992.14569871215383
 21
751.25803850201851
  0
LINE
  8
_0-0_
  6
CONTINUOUS
 62
    7
 10
1015.4812036234299
 20
751.25803850201851
 11
1015.4812036234299
 21
751.25803850201851
  0
LINE
  8
_0-0_
  6
CONTINUOUS
 62
    7
 10
1015.4812036234299
 20
751.25803850201851
 11
1012.0332173800731
 21
752.74242908015265
  0
LINE
  8
_0-0_
  6
CONTINUOUS
 62
    7
 10
1012.0332173800731
 20
752.74242908015265
 11
1008.4545251796804
 21
753.36133586436722
  0
LINE
  8
_0-0_
  6
CONTINUOUS
 62
    7
 10
1008.4545251796804
 20
753.36133586436722
 11
1004.8538637738551
 21
753.09595368520593
  0
LINE
  8
_0-0_
  6
CONTINUOUS
 62
    7
 10
1004.8538637738551
 20
753.09595368520593
 11
1001.3406374373907
 21
751.95434604589275
  0
LINE
  8
_0-0_
  6
CONTINUOUS
 62
    7
 10
1001.3406374373907
 20
751.95434604589275
 11
999.98176667613291
 21
751.25803850201851
  0
LINE
  8
_0-0_
  6
CONTINUOUS
 62
    4
 10
1043.4299699596158
 20
779.85601824846549
 11
1022.831990213169
 21
759.25803850201851
  0
LINE
  8
_0-0_
  6
CONTINUOUS
 62
    4
 10
1022.831990213169
 20
759.25803850201851
 11
1017.2889263491808
 21
759.25803850201851
  0
LINE
  8
_0-0_
  6
CONTINUOUS
 62
    4
 10
1017.2889263491813
 20
759.25803850201851
 11
1017.2889263491813
 21
759.25803850201851
  0
LINE
  8
_0-0_
  6
CONTINUOUS
 62
    4
 10
1017.2889263491813
 20
759.25803850201851
 11
1012.4472869338528
 21
760.87404796574765
  0
LINE
  8
_0-0_
  6
CONTINUOUS
 62
    4
 10
1012.4472869338528
 20
760.87404796574765
 11
1007.4623602676261
 21
761.37749851051615
  0
LINE
  8
_0-0_
  6
CONTINUOUS
 62
    4
 10
1007.4623602676261
 20
761.37749851051615
 11
1002.4856108247599
 21
760.75309304627945
  0
LINE
  8
_0-0_
  6
CONTINUOUS
 62
    4
 10
1002.4856108247599
 20
760.75309304627945
 11
998.17404395038147
 21
759.25803850201851
  0
LINE
  8
_0-0_
  6
CONTINUOUS
 62
    4
 10
990.64569871215383
 20
759.25803850201851
 11
988.64569871215383
 21
757.25803850201851
  0
LINE
  8
_0-0_
  6
CONTINUOUS
 62
  136
 10
1051.4299699596158
 20
776.54230974948064
 11
1023.1456987121538
 21
748.25803850201851
  0
LINE
  8
_0-0_
  6
CONTINUOUS
 62
  136
 10
1023.1456987121538
 20
748.25803850201851
 11
993.14569871215383
 21
748.25803850201851
  0
LINE
  8
_0-0_
  6
CONTINUOUS
 62
  136
 10
993.14569871215383
 20
748.25803850201851
 11
993.14569871215383
 21
750.25803850201851
  0
LINE
  8
_0-0_
  6
CONTINUOUS
 62
  136
 10
1051.4299699596158
 20
806.54230974948064
 11
1051.4299699596158
 21
776.54230974948064
  0
LINE
  8
_0-0_
  6
CONTINUOUS
 62
  136
 10
1051.4299699596158
 20
806.54230974948064
 11
1049.4299699596158
 21
806.54230974948064
  0
LINE
  8
_0-0_
  6
CONTINUOUS
 62
  136
 10
1049.4299699596158
 20
806.54230974948064
 11
1049.4299699596158
 21
777.3707368742264
  0
LINE
  8
_0-0_
  6
CONTINUOUS
 62
  136
 10
1022.3172715874081
 20
750.25803850201851
 11
993.14569871215383
 21
750.25803850201851
  0
LINE
  8
_0-0_
  6
DASHED1
 62
    1
 10
1008.9814851497814
 20
752.25803850201851
 11
1008.9814851497814
 21
681.50803850201851
  0
LINE
  8
_0-0_
  6
CONTINUOUS
 62
    1
 10
1009.5563139088709
 20
752.25803850201851
 11
1005.9066563906919
 21
752.25803850201851
  0
LINE
  8
_0-0_
  6
CONTINUOUS
 62
    1
 10
1015.2314851497814
 20
750.25803850201851
 11
1015.2314851497814
 21
750.25803850201851
  0
LINE
  8
_0-0_
  6
CONTINUOUS
 62
    1
 10
1015.2314851497814
 20
750.25803850201851
 11
1011.9571464638349
 21
751.7235562696244
  0
LINE
  8
_0-0_
  6
CONTINUOUS
 62
    1
 10
1011.9571464638349
 20
751.7235562696244
 11
1009.5563139088709
 21
752.25803850201851
  0
LINE
  8
_0-0_
  6
CONTINUOUS
 62
    1
 10
1006.4814851497814
 20
752.25803850201851
 11
1006.4814851497814
 21
752.25803850201851
  0
LINE
  8
_0-0_
  6
CONTINUOUS
 62
    1
 10
1006.4814851497814
 20
752.25803850201851
 11
1006.2527727189072
 21
752.42636712159458
  0
LINE
  8
_0-0_
  6
CONTINUOUS
 62
    1
 10
1009.2101975806556
 20
752.42636712159458
 11
1009.2101975806556
 21
752.42636712159458
  0
LINE
  8
_0-0_
  6
CONTINUOUS
 62
    1
 10
1009.2101975806556
 20
752.42636712159458
 11
1008.9814851497814
 21
752.25803850201851
  0
LINE
  8
_0-0_
  6
CONTINUOUS
 62
    1
 10
1009.2101975806556
 20
752.42636712159469
 11
1009.2101975806556
 21
752.42636712159469
  0
LINE
  8
_0-0_
  6
CONTINUOUS
 62
    1
 10
1009.2101975806556
 20
752.42636712159469
 11
1008.9538929518732
 21
752.45590679649524
  0
LINE
  8
_0-0_
  6
CONTINUOUS
 62
    1
 10
1008.9538929518732
 20
752.45590679649524
 11
1008.6604460805924
 21
752.47943434339436
  0
LINE
  8
_0-0_
  6
CONTINUOUS
 62
    1
 10
1008.6604460805924
 20
752.47943434339436
 11
1008.3387732015058
 21
752.49623488968507
  0
LINE
  8
_0-0_
  6
CONTINUOUS
 62
    1
 10
1008.3387732015058
 20
752.49623488968507
 11
1007.9986481822701
 21
752.50579795926967
  0
LINE
  8
_0-0_
  6
CONTINUOUS
 62
    1
 10
1007.9986481822701
 20
752.50579795926967
 11
1007.6504055494834
 21
752.50783298311796
  0
LINE
  8
_0-0_
  6
CONTINUOUS
 62
    1
 10
1007.6504055494834
 20
752.50783298311796
 11
1007.3046264793234
 21
752.5022781280602
  0
LINE
  8
_0-0_
  6
CONTINUOUS
 62
    1
 10
1007.3046264793234
 20
752.5022781280602
 11
1006.9718172938643
 21
752.48930217555642
  0
LINE
  8
_0-0_
  6
CONTINUOUS
 62
    1
 10
1006.9718172938643
 20
752.48930217555642
 11
1006.6620902317968
 21
752.46929939335712
  0
LINE
  8
_0-0_
  6
CONTINUOUS
 62
    1
 10
1006.6620902317968
 20
752.46929939335712
 11
1006.3848561931724
 21
752.44287755587777
  0
LINE
  8
_0-0_
  6
CONTINUOUS
 62
    1
 10
1006.3848561931724
 20
752.44287755587777
 11
1006.2527727189071
 21
752.42636712159458
  0
LINE
  8
_0-0_
  6
CONTINUOUS
 62
    1
 10
1010.2314851497814
 20
750.23089828382058
 11
1010.2314851497814
 21
750.25803850201851
  0
LINE
  8
_0-0_
  6
CONTINUOUS
 62
    1
 10
1000.3631069303457
 20
750.33473082447949
 11
1000.3631069303457
 21
750.33473082447949
  0
LINE
  8
_0-0_
  6
CONTINUOUS
 62
    1
 10
1000.3631069303457
 20
750.33473082447949
 11
1000.2314851497814
 21
750.25803850201851
  0
LINE
  8
_0-0_
  6
CONTINUOUS
 62
    1
 10
1005.9066563906919
 20
752.25803850201851
 11
1005.9066563906919
 21
752.25803850201851
  0
LINE
  8
_0-0_
  6
CONTINUOUS
 62
    1
 10
1005.9066563906919
 20
752.25803850201851
 11
1002.5308753576386
 21
751.37997245983161
  0
LINE
  8
_0-0_
  6
CONTINUOUS
 62
    1
 10
1002.5308753576386
 20
751.37997245983161
 11
1000.3631069303457
 21
750.33473082447949
  0
LINE
  8
_0-0_
  6
CONTINUOUS
 62
    1
 10
1000.2314851497814
 20
750.25803850201851
 11
1015.2314851497814
 21
750.25803850201851
  0
LINE
  8
_0-0_
  6
CONTINUOUS
 62
    1
 10
1005.2314851497814
 20
689.25803850201851
 11
1004.7679546958663
 21
680.413350551946
  0
LINE
  8
_0-0_
  6
CONTINUOUS
 62
    1
 10
1007.7314851497814
 20
680.25803850201851
 11
1008.4172174559782
 21
680.94377080821528
  0
LINE
  8
_0-0_
  6
CONTINUOUS
 62
    1
 10
1007.7314851497814
 20
680.25803850201851
 11
1007.0457528435842
 21
680.94377080821528
  0
LINE
  8
_0-0_
  6
DASHED1
 62
    1
 10
1008.4172174559782
 20
680.94377080821528
 11
1008.9814851497814
 21
681.50803850201851
  0
LINE
  8
_0-0_
  6
CONTINUOUS
 62
    1
 10
1010.2314851497814
 20
689.25803850201851
 11
1010.6950156036957
 21
680.413350551946
  0
LINE
  8
_0-0_
  6
CONTINUOUS
 62
    1
 10
1007.9814851497814
 20
689.25803850201851
 11
1008.4511784714069
 21
680.29575603076978
  0
LINE
  8
_0-0_
  6
CONTINUOUS
 62
    1
 10
1007.4814851497814
 20
689.25803850201851
 11
1007.0117918281559
 21
680.29575603076978
  0
LINE
  8
_0-0_
  6
DASHED1
 62
    1
 10
1007.0457528435842
 20
680.94377080821528
 11
1006.4814851497814
 21
681.50803850201851
  0
LINE
  8
_0-0_
  6
CONTINUOUS
 62
    1
 10
1004.7679546958663
 20
680.413350551946
 11
1007.0117918281559
 21
680.29575603076978
  0
LINE
  8
_0-0_
  6
CONTINUOUS
 62
    1
 10
1008.4511784714069
 20
680.29575603076978
 11
1010.6950156036957
 21
680.413350551946
  0
LINE
  8
_0-0_
  6
CONTINUOUS
 62
    1
 10
1007.4814851497814
 20
689.25803850201851
 11
1007.9814851497814
 21
689.25803850201851
  0
LINE
  8
_0-0_
  6
DASHED1
 62
    1
 10
1006.4814851497814
 20
752.25803850201851
 11
1006.4814851497814
 21
681.50803850201851
  0
LINE
  8
_0-0_
  6
CENTER2
 62
    1
 10
1007.7314851497814
 20
760.81312891351467
 11
1007.7314851497814
 21
675.72768526866298
  0
LINE
  8
_0-0_
  6
CONTINUOUS
 62
    1
 10
1005.2314851497814
 20
689.25803850201851
 11
1005.2314851497814
 21
750.25803850201851
  0
LINE
  8
_0-0_
  6
CONTINUOUS
 62
    1
 10
1010.2314851497814
 20
689.25803850201851
 11
1010.2314851497814
 21
750.25803850201851
  0
LINE
  8
_0-0_
  6
CONTINUOUS
 62
    7
 10
1050.4299699596158
 20
807.54230974948064
 11
1050.4299699596158
 21
845.3707368742264
  0
LINE
  8
_0-0_
  6
CONTINUOUS
 62
    7
 10
1050.4299699596158
 20
845.3707368742264
 11
1051.4299699596158
 21
845.3707368742264
  0
LINE
  8
_0-0_
  6
CONTINUOUS
 62
    1
 10
1002.7314851497814
 20
707.25803850201851
 11
1012.7314851497814
 21
707.25803850201851
  0
LINE
  8
_0-0_
  6
CONTINUOUS
 62
    1
 10
1012.7314851497814
 20
707.25803850201851
 11
1012.7314851497814
 21
742.25803850201851
  0
LINE
  8
_0-0_
  6
CONTINUOUS
 62
    1
 10
1012.7314851497814
 20
742.25803850201851
 11
1002.7314851497814
 21
742.25803850201851
  0
LINE
  8
_0-0_
  6
CONTINUOUS
 62
    1
 10
1002.7314851497814
 20
742.25803850201851
 11
1002.7314851497814
 21
707.25803850201851
  0
LINE
  8
_0-0_
  6
CONTINUOUS
 62
    1
 10
1011.7314851497814
 20
707.25803850201851
 11
1011.7314851497814
 21
742.25803850201851
  0
LINE
  8
_0-0_
  6
CONTINUOUS
 62
    1
 10
1003.7314851497814
 20
742.25803850201851
 11
1003.7314851497814
 21
707.25803850201851
  0
LINE
  8
_0-0_
  6
CONTINUOUS
 62
    4
 10
1045.4299699596158
 20
929.84307115845809
 11
1045.4299699596158
 21
811.04230974948064
  0
LINE
  8
_0-0_
  6
CONTINUOUS
 62
    4
 10
1314.7114099596147
 20
929.84307115845809
 11
1314.7114099596147
 21
811.04230974948064
  0
LINE
  8
_0-0_
  6
CONTINUOUS
 62
    7
 10
1308.7114099596147
 20
927.3577897842199
 11
1308.7114099596147
 21
707.25803850201851
  0
LINE
  8
_0-0_
  6
CONTINUOUS
 62
    7
 10
1051.4299699596158
 20
927.3577897842199
 11
1051.4299699596158
 21
707.25803850201851
  0
LINE
  8
_0-0_
  6
CONTINUOUS
 62
    7
 10
1308.7114099596147
 20
707.25803850201851
 11
1523.158587959615
 21
707.25803850201851
  0
LINE
  8
_0-0_
  6
CONTINUOUS
 62
    6
 10
1514.7825338179932
 20
742.25803850201942
 11
1523.1585879596155
 21
733.88198436039715
  0
LINE
  8
_0-0_
  6
CONTINUOUS
 62
    6
 10
1507.5122706308712
 20
707.25803850201942
 11
1523.158587959615
 21
722.90435583076328
  0
LINE
  8
_0-0_
  6
CONTINUOUS
 62
    6
 10
1521.6544062546009
 20
707.2580385020176
 11
1523.158587959615
 21
708.76222020703176
  0
LINE
  8
_0-0_
  6
CONTINUOUS
 62
    6
 10
1500.6403981942631
 20
742.25803850201851
 11
1523.1585879596155
 21
719.73984873666654
  0
LINE
  8
_0-0_
  6
CONTINUOUS
 62
    6
 10
1523.158587959615
 20
742.25803850201851
 11
1308.7114099596147
 21
742.25803850201851
  0
LINE
  8
_0-0_
  6
CONTINUOUS
 62
    3
 10
1308.7114099596147
 20
748.25803850201851
 11
1523.158587959615
 21
748.25803850201851
  0
LINE
  8
_0-0_
  6
CONTINUOUS
 62
    6
 10
1493.3701350071401
 20
707.25803850201851
 11
1523.1585879596155
 21
737.04649145449389
  0
LINE
  8
_0-0_
  6
CONTINUOUS
 62
    4
 10
1371.4956812070768
 20
757.25803850201851
 11
1523.158587959615
 21
757.25803850201851
  0
LINE
  8
_0-0_
  6
CONTINUOUS
 62
    6
 10
820.41859295961524
 20
742.25803850201851
 11
1051.4299699596158
 21
742.25803850201851
  0
LINE
  8
_0-0_
  6
CONTINUOUS
 62
    3
 10
1051.4299699596158
 20
748.25803850201851
 11
820.41859295961524
 21
748.25803850201851
  0
LINE
  8
_0-0_
  6
CONTINUOUS
 62
    4
 10
988.64569871215383
 20
757.25803850201851
 11
820.41859295961524
 21
757.25803850201851
  0
LINE
  8
_0-0_
  6
CONTINUOUS
 62
    7
 10
1051.4299699596158
 20
707.25803850201851
 11
820.41859295961524
 21
707.25803850201851
  0
LINE
  8
_0-0_
  6
CONTINUOUS
 62
    6
 10
824.3448380408978
 20
707.25803850201851
 11
820.41859295961558
 21
711.18428358330061
  0
LINE
  8
_0-0_
  6
CONTINUOUS
 62
    6
 10
831.21671047750499
 20
742.25803850201851
 11
820.41859295961501
 21
731.4599209841283
  0
LINE
  8
_0-0_
  6
CONTINUOUS
 62
    6
 10
838.48697366462977
 20
707.2580385020176
 11
820.41859295961524
 21
725.32641920703213
  0
LINE
  8
_0-0_
  6
CONTINUOUS
 62
    6
 10
852.62910928835947
 20
707.25803850201942
 11
820.41859295961524
 21
739.46855483076365
  0
LINE
  8
_0-0_
  6
CONTINUOUS
 62
    6
 10
845.35884610123742
 20
742.25803850201942
 11
820.4185929596149
 21
717.31778536039678
  0
LINE
  8
_0-0_
  6
CONTINUOUS
 62
    7
 10
986.47543646818133
 20
527.2580385020176
 11
1308.7114099596147
 21
849.49401199345107
  0
LINE
  8
_0-0_
  6
CONTINUOUS
 62
    7
 10
993.54650428004618
 20
527.2580385020176
 11
1308.7114099596147
 21
842.42294418158622
  0
LINE
  8
_0-0_
  6
CONTINUOUS
 62
    7
 10
1000.617572091911
 20
527.2580385020176
 11
1308.7114099596147
 21
835.35187636972137
  0
LINE
  8
_0-0_
  6
CONTINUOUS
 62
    7
 10
1212.7496064478778
 20
527.2580385020176
 11
1392.7496064478783
 21
707.25803850201851
  0
LINE
  8
_0-0_
  6
CONTINUOUS
 62
    7
 10
1219.8206742597417
 20
527.2580385020176
 11
1399.8206742597417
 21
707.25803850201851
  0
LINE
  8
_0-0_
  6
CONTINUOUS
 62
    7
 10
1226.8917420716075
 20
527.2580385020176
 11
1406.8917420716075
 21
707.25803850201851
  0
LINE
  8
_0-0_
  6
CONTINUOUS
 62
    7
 10
1439.0237764275744
 20
527.2580385020176
 11
1523.158587959615
 21
611.39285003406189
  0
LINE
  8
_0-0_
  6
CONTINUOUS
 62
    7
 10
1446.094844239437
 20
527.2580385020176
 11
1523.158587959615
 21
604.32178222219613
  0
LINE
  8
_0-0_
  6
CONTINUOUS
 62
    7
 10
1453.1659120513036
 20
527.2580385020176
 11
1523.158587959615
 21
597.25071441033128
  0
LINE
  8
_0-0_
  6
CONTINUOUS
 62
    7
 10
672.13606690525205
 20
1633.3565543671132
 11
1706.8525777203677
 21
1633.3565543671132
  0
LINE
  8
_0-0_
  6
CONTINUOUS
 62
    7
 10
672.13606690525205
 20
1553.3565543671132
 11
1706.8525777203677
 21
1553.3565543671132
  0
LINE
  8
_0-0_
  6
CONTINUOUS
 62
    7
 10
672.13606690525205
 20
1473.3565543671132
 11
1706.8525777203677
 21
1473.3565543671132
  0
LINE
  8
_0-0_
  6
CONTINUOUS
 62
    7
 10
1189.4943223128103
 20
1633.3565543671132
 11
1189.4943223128103
 21
1473.3565543671132
  0
TEXT
  8
_0-0_
 62
    7
 10
1213.4943223128103
 20
1577.3565543671132
 40
20
 41
1
 50
0
  1
構造：ＲＣ造
  0
TEXT
  8
_0-0_
 62
    7
 10
1213.4943223128103
 20
1497.3565543671132
 40
20
 41
1
 50
0
  1
下地：コンクリートスラブ
  0
TEXT
  8
_0-0_
 62
    7
 10
696.13606690525205
 20
1577.3565543671132
 40
20
 41
1
 50
0
  1
図面番号：dan-kikai-SP-kiso-02
  0
LINE
  8
_0-0_
  6
CONTINUOUS
 62
    4
 10
1240.891049959615
 20
943.96439150201809
 11
1240.891049959615
 21
963.96439150201809
  0
LINE
  8
_0-0_
  6
CONTINUOUS
 62
    4
 10
1262.891049959615
 20
943.96439150201809
 11
1262.891049959615
 21
963.96439150201809
  0
LINE
  8
_0-0_
  6
CONTINUOUS
 62
    4
 10
1300.5900896160547
 20
943.96439150201809
 11
1262.891049959615
 21
943.96439150201809
  0
LINE
  8
_0-0_
  6
CONTINUOUS
 62
    4
 10
1240.891049959615
 20
943.96439150201809
 11
1220.0706899596153
 21
943.96439150201809
  0
LINE
  8
_0-0_
  6
CONTINUOUS
 62
    2
 10
1240.5567034418436
 20
943.96439150201627
 11
1240.891049959615
 21
944.29873801978761
  0
LINE
  8
_0-0_
  6
CONTINUOUS
 62
    2
 10
1237.7282763171006
 20
943.96439150201809
 11
1240.891049959615
 21
947.12716514453223
  0
LINE
  8
_0-0_
  6
CONTINUOUS
 62
    2
 10
1234.8998491923539
 20
943.964391502019
 11
1240.891049959615
 21
949.95559226927946
  0
LINE
  8
_0-0_
  6
CONTINUOUS
 62
    2
 10
1232.0714220676055
 20
943.96439150201627
 11
1240.891049959615
 21
952.78401939402579
  0
LINE
  8
_0-0_
  6
CONTINUOUS
 62
    2
 10
1262.891049959615
 20
952.15660239605631
 11
1264.698839065577
 21
953.96439150201809
  0
LINE
  8
_0-0_
  6
CONTINUOUS
 62
    2
 10
1262.891049959615
 20
949.32817527130896
 11
1267.5272661903236
 21
953.96439150201718
  0
LINE
  8
_0-0_
  6
CONTINUOUS
 62
    2
 10
1262.891049959615
 20
946.49974814656412
 11
1270.3556933150703
 21
953.96439150201809
  0
LINE
  8
_0-0_
  6
CONTINUOUS
 62
    4
 10
1097.2503299596156
 20
943.96439150201809
 11
1097.2503299596156
 21
963.96439150201809
  0
LINE
  8
_0-0_
  6
CONTINUOUS
 62
    4
 10
1119.2503299596156
 20
943.96439150201718
 11
1119.2503299596156
 21
963.96439150201809
  0
LINE
  8
_0-0_
  6
CONTINUOUS
 62
    4
 10
1140.0706899596153
 20
943.96439150201809
 11
1119.2503299596156
 21
943.96439150201809
  0
LINE
  8
_0-0_
  6
CONTINUOUS
 62
    4
 10
1097.2503299596156
 20
943.96439150201809
 11
1059.5512903031758
 21
943.96439150201809
  0
LINE
  8
_0-0_
  6
CONTINUOUS
 62
    2
 10
1119.2503299596156
 20
944.28038438387307
 11
1128.9343370777597
 21
953.96439150201718
  0
LINE
  8
_0-0_
  6
CONTINUOUS
 62
    2
 10
1119.2503299596156
 20
947.10881150861883
 11
1126.1059099530148
 21
953.96439150201809
  0
LINE
  8
_0-0_
  6
CONTINUOUS
 62
    2
 10
1119.2503299596156
 20
949.9372386333655
 11
1123.2774828282691
 21
953.964391502019
  0
LINE
  8
_0-0_
  6
CONTINUOUS
 62
    2
 10
1119.2503299596156
 20
952.76566575811216
 11
1120.4490557035215
 21
953.96439150201809
  0
LINE
  8
_0-0_
  6
CONTINUOUS
 62
    2
 10
1096.3069200797891
 20
943.96439150201627
 11
1097.2503299596156
 21
944.90780138184277
  0
LINE
  8
_0-0_
  6
CONTINUOUS
 62
    2
 10
1093.478492955046
 20
943.964391502019
 11
1097.2503299596156
 21
947.73622850658853
  0
LINE
  8
_0-0_
  6
CONTINUOUS
 62
    2
 10
1090.6500658302994
 20
943.964391502019
 11
1097.2503299596156
 21
950.5646556313352
  0
LINE
  8
_0-0_
  6
CONTINUOUS
 62
    2
 10
1087.82163870555
 20
943.96439150201627
 11
1097.2503299596156
 21
953.39308275608187
  0
TEXT
  8
_0-0_
 62
    7
 10
696.13606690525205
 20
1497.3565543671132
 40
20
 41
1
 50
0
  1
施工部位：基礎・架台(Ｈ鋼)
  0
ENDSEC
  0
EOF
