  0
SECTION
  2
HEADER
  9
$ACADVER
  1
AC1009
  9
$INSBASE
 10
0
 20
0
 30
0
  9
$EXTMIN
 10
0
 20
0
  9
$EXTMAX
 10
2378
 20
1682
  9
$LIMMIN
 10
0
 20
0
  9
$LIMMAX
 10
2378
 20
1682
  9
$LTSCALE
 40
1
  0
ENDSEC
  0
SECTION
  2
TABLES
  0
TABLE
  2
LTYPE
 70
     9
  0
LTYPE
  2
CONTINUOUS
 70
    64
  3
実線
 72
    65
 73
     0
 40
0.0
  0
LTYPE
  2
DASHED1
 70
    64
  3
--  --  --  --  --  --  --  --  
 72
    65
 73
     2
 40
2.5
 49
1.25
 49
-1.25
  0
LTYPE
  2
DASHED2
 70
    64
  3
----    ----    ----    ----    
 72
    65
 73
     2
 40
5.0
 49
2.5
 49
-2.5
  0
LTYPE
  2
DASHED3
 70
    64
  3
------  ------  ------  ------  
 72
    65
 73
     2
 40
5.0
 49
3.75
 49
-1.25
  0
LTYPE
  2
CENTER1
 70
    64
  3
----- - ----- - ----- - ----- - 
 72
    65
 73
     4
 40
10.0
 49
6.25
 49
-1.25
 49
1.25
 49
-1.25
  0
LTYPE
  2
CENTER2
 70
    64
  3
----------  --  ----------  --  
 72
    65
 73
     4
 40
20.0
 49
12.5
 49
-2.5
 49
2.5
 49
-2.5
  0
LTYPE
  2
PHANTOM1
 70
    64
  3
--- - - --- - - --- - - --- - - 
 72
    65
 73
     6
 40
10.0
 49
3.25
 49
-1.25
 49
1.25
 49
-1.25
 49
1.25
 49
-1.25
  0
LTYPE
  2
PHANTOM2
 70
    64
  3
--------  -  -  --------  -  -  
 72
    65
 73
     6
 40
20.0
 49
10.0
 49
-2.5
 49
1.25
 49
-2.5
 49
1.25
 49
-2.5
  0
LTYPE
  2
DOT
 70
    64
  3
-   -   -   -   -   -   -   -   
 72
    65
 73
     2
 40
2.5
 49
0.625
 49
-1.875
  0
LTYPE
  2
DUMMY
 70
    64
  3
ダミー
 72
    65
 73
     0
 40
0.0
  0
LTYPE
  2
RAND1
 70
    64
  3
ランダム線1
 72
    65
 73
     4
 40
10.0
 49
1.0
 49
-2.0
 49
3.0
 49
-4.0
  0
LTYPE
  2
RAND2
 70
    64
  3
ランダム線2
 72
    65
 73
     4
 40
14.0
 49
2.0
 49
-3.0
 49
4.0
 49
-5.0
  0
LTYPE
  2
RAND3
 70
    64
  3
ランダム線3
 72
    65
 73
     4
 40
18.0
 49
3.0
 49
-4.0
 49
5.0
 49
-6.0
  0
LTYPE
  2
RAND4
 70
    64
  3
ランダム線4
 72
    65
 73
     4
 40
22.0
 49
4.0
 49
-5.0
 49
6.0
 49
-7.0
  0
LTYPE
  2
RAND5
 70
    64
  3
ランダム線5
 72
    65
 73
     4
 40
26.0
 49
5.0
 49
-6.0
 49
7.0
 49
-8.0
  0
LTYPE
  2
LONG1
 70
    64
  3
----------  --  ----------  --  
 72
    65
 73
     4
 40
40.0
 49
32.5
 49
-2.5
 49
2.5
 49
-2.5
  0
LTYPE
  2
LONG2
 70
    64
  3
--------  -  -  --------  -  -  
 72
    65
 73
     6
 40
40.0
 49
30.0
 49
-2.5
 49
1.25
 49
-2.5
 49
1.25
 49
-2.5
  0
LTYPE
  2
LONG3
 70
    64
  3
+++++++++++++++..+++++++++++++++
 72
    65
 73
     2
 40
40.0
 49
37.5
 49
-2.5
  0
LTYPE
  2
LONG4
 70
    64
  3
+++++++++++++++..+++++++++++++++
 72
    65
 73
     2
 40
80.0
 49
75.0
 49
-5.0
  0
LTYPE
  2
LONG5
 70
    64
  3
----------  --  ----------  --  
 72
    65
 73
     4
 40
60.0
 49
37.5
 49
-7.5
 49
7.5
 49
-7.5
  0
LTYPE
  2
dashed
 70
   64
  3
-------   -------------   ------
 72
   65
 73
    2
 40
7.5
 49
6
 49
-1.5
  0
LTYPE
  2
dashed_spaced
 70
   64
  3
----        --------        ----
 72
   65
 73
    2
 40
12
 49
6
 49
-6
  0
LTYPE
  2
long_dashed_dotted
 70
   64
  3
------------- --- --------------
 72
   65
 73
    4
 40
15.25
 49
12
 49
-1.5
 49
0.25
 49
-1.5
  0
LTYPE
  2
long_dashed_double-dotted
 70
   64
  3
----------- --- --- ------------
 72
   65
 73
    6
 40
17
 49
12
 49
-1.5
 49
0.25
 49
-1.5
 49
0.25
 49
-1.5
  0
LTYPE
  2
long_dashed_triplicate-dotted
 70
   64
  3
--------- --- --- --- ----------
 72
   65
 73
    8
 40
18.75
 49
12
 49
-1.5
 49
0.25
 49
-1.5
 49
0.25
 49
-1.5
 49
0.25
 49
-1.5
  0
LTYPE
  2
dotted
 70
   64
  3
   -       -       -       -    
 72
   65
 73
    2
 40
1.75
 49
0.25
 49
-1.5
  0
LTYPE
  2
chain
 70
   64
  3
-------------- -- --------------
 72
   65
 73
    4
 40
18.5
 49
12
 49
-1.5
 49
3.5
 49
-1.5
  0
LTYPE
  2
chain_double_dash
 70
   64
  3
------------ -- -- -------------
 72
   65
 73
    6
 40
23.5
 49
12
 49
-1.5
 49
3.5
 49
-1.5
 49
3.5
 49
-1.5
  0
LTYPE
  2
dashed_dotted
 70
   64
  3
-----------     -     ----------
 72
   65
 73
    4
 40
9.25
 49
6
 49
-1.5
 49
0.25
 49
-1.5
  0
LTYPE
  2
double-dashed_dotted
 70
   64
  3
------   -----------   -   -----
 72
   65
 73
    6
 40
16.75
 49
6
 49
-1.5
 49
6
 49
-1.5
 49
0.25
 49
-1.5
  0
LTYPE
  2
dashed_double-dotted
 70
   64
  3
---------    -    -    ---------
 72
   65
 73
    6
 40
11
 49
6
 49
-1.5
 49
0.25
 49
-1.5
 49
0.25
 49
-1.5
  0
LTYPE
  2
double-dashed_double-dotted
 70
   64
  3
-----   ---------   -   -   ----
 72
   65
 73
    8
 40
18.5
 49
6
 49
-1.5
 49
6
 49
-1.5
 49
0.25
 49
-1.5
 49
0.25
 49
-1.5
  0
LTYPE
  2
dashed_triplicate-dotted
 70
   64
  3
-------    -    -    -    ------
 72
   65
 73
    8
 40
12.75
 49
6
 49
-1.5
 49
0.25
 49
-1.5
 49
0.25
 49
-1.5
 49
0.25
 49
-1.5
  0
LTYPE
  2
double-dashed_triplicate-dotted
 70
   64
  3
-----  ---------  -  -  -  -----
 72
   65
 73
   10
 40
20.25
 49
6
 49
-1.5
 49
6
 49
-1.5
 49
0.25
 49
-1.5
 49
0.25
 49
-1.5
 49
0.25
 49
-1.5
  0
LTYPE
  2
undefined
 70
   64
  3
--------------------------------
 72
   65
 73
    0
 40
0
  0
ENDTAB
  0
TABLE
  2
STYLE
  5
3
100
AcDbSymbolTable
 70
     1
  0
STYLE
  5
10
100
AcDbSymbolTableRecord
100
AcDbTextStyleTableRecord
  2
STANDARD
 70
     0
 40
0.0
 41
1.0
 50
0.0
 71
     0
 42
0.2
  3
txt
  4
bigfont.shx
  0
STYLE
  5
26
100
AcDbSymbolTableRecord
100
AcDbTextStyleTableRecord
  2
TATEGAKI
 70
    68
 40
0.0
 41
1.0
 50
0.0
 71
     0
 42
1.0
  3
txt
  4
bigfont.shx
  0
ENDTAB
  0
TABLE
  2
LAYER
 70
    2
  0
LAYER
  2
_0-0_
 70
   64
 62
    7
  6
CONTINUOUS
  0
LAYER
  2
ADD_LINE
 70
   64
 62
    7
  6
CONTINUOUS
  0
ENDTAB
  0
ENDSEC
  0
SECTION
  2
BLOCKS
  0
ENDSEC
  0
SECTION
  2
ENTITIES
  0
LINE
  8
_0-0_
  6
CONTINUOUS
 62
    7
 10
1223.9254991561129
 20
835.99224806201551
 11
1223.9254991561129
 21
772.99224806201551
  0
LINE
  8
_0-0_
  6
CONTINUOUS
 62
    7
 10
1093.3410852713168
 20
772.9922480620146
 11
1336.3410852713178
 21
1015.9922480620155
  0
LINE
  8
_0-0_
  6
CONTINUOUS
 62
    7
 10
1086.2700174594529
 20
772.99224806201551
 11
1329.2700174594538
 21
1015.9922480620155
  0
LINE
  8
_0-0_
  6
CONTINUOUS
 62
    7
 10
672.13606690525205
 20
567.53106997205509
 11
1706.8525777203677
 21
567.53106997205509
  0
LINE
  8
_0-0_
  6
CONTINUOUS
 62
    7
 10
672.13606690525205
 20
167.53106997205509
 11
1706.8525777203677
 21
167.53106997205509
  0
LINE
  8
_0-0_
  6
CONTINUOUS
 62
    7
 10
672.13606690525205
 20
627.53106997205509
 11
1706.8525777203677
 21
627.53106997205509
  0
LINE
  8
_0-0_
  6
CONTINUOUS
 62
    7
 10
1189.4943223128103
 20
627.53106997205509
 11
1189.4943223128103
 21
167.53106997205509
  0
LINE
  8
_0-0_
  6
CONTINUOUS
 62
    7
 10
672.13606690525205
 20
1633.3565543671132
 11
672.13606690525205
 21
167.53106997205509
  0
LINE
  8
_0-0_
  6
CONTINUOUS
 62
    7
 10
1706.8525777203677
 20
1633.3565543671132
 11
1706.8525777203677
 21
167.53106997205509
  0
TEXT
  8
_0-0_
 62
    7
 10
906.73245032900388
 20
575.67973412101151
 40
40
 41
1
 50
0
  1
Ａ
  0
TEXT
  8
_0-0_
 62
    7
 10
1429.6891920142098
 20
576.02721287347708
 40
40
 41
1
 50
0
  1
Ｂ
  0
LINE
  8
_0-0_
  6
CONTINUOUS
 62
    7
 10
873.92549915611391
 20
1006.125001906202
 11
1023.925499156113
 21
1156.1250019062011
  0
LINE
  8
_0-0_
  6
CONTINUOUS
 62
    7
 10
963.42404853958408
 20
1440.9858702173553
 11
954.24684853958399
 21
1427.8794702173548
  0
LINE
  8
_0-0_
  6
CONTINUOUS
 62
    7
 10
963.42404853958408
 20
1440.9858702173553
 11
961.03894853958457
 21
1434.4326702173551
  0
LINE
  8
_0-0_
  6
CONTINUOUS
 62
    7
 10
954.24684853958399
 20
1427.8794702173539
 11
956.63194853958532
 21
1434.4326702173551
  0
LINE
  8
_0-0_
  6
CONTINUOUS
 62
    7
 10
860.77661825290409
 20
1434.4326702173551
 11
956.63194853958532
 21
1434.4326702173551
  0
LINE
  8
_0-0_
  6
CONTINUOUS
 62
    7
 10
961.03894853958457
 20
1434.4326702173551
 11
1057.4345825254313
 21
1434.4326702173551
  0
LINE
  8
_0-0_
  6
CONTINUOUS
 62
    7
 10
873.92549915611301
 20
1434.4326702173551
 11
873.92549915611301
 21
772.99224806201551
  0
LINE
  8
_0-0_
  6
CONTINUOUS
 62
    7
 10
873.92549915611301
 20
1246.541307509626
 11
1043.9254991561129
 21
1416.5413075096251
  0
LINE
  8
_0-0_
  6
CONTINUOUS
 62
    7
 10
873.92549915611301
 20
1239.4702396977611
 11
1043.9254991561129
 21
1409.4702396977611
  0
LINE
  8
_0-0_
  6
CONTINUOUS
 62
    7
 10
873.92549915611391
 20
1232.3991718858972
 11
1043.9254991561129
 21
1402.399171885899
  0
LINE
  8
_0-0_
  6
CONTINUOUS
 62
    7
 10
962.5198203743895
 20
370.74005731514831
 11
917.5198203743895
 21
370.74005731514831
  0
LINE
  8
_0-0_
  6
CONTINUOUS
 62
    7
 10
923.97112422496969
 20
370.74005731514831
 11
962.5198203743895
 21
409.28875346456539
  0
ARC
  8
_0-0_
  6
CONTINUOUS
 62
    2
 10
1013.4332300829702
 20
288.32664760656758
 40
96.871798723612699
 50
121.70696983898064
 51
148.29303016101935
  0
LINE
  8
_0-0_
  6
CONTINUOUS
 62
    2
 10
931.0198203743895
 20
339.98798819510944
 11
932.32236826034762
 21
341.29053608106847
  0
LINE
  8
_0-0_
  6
CONTINUOUS
 62
    2
 10
960.46934160846934
 20
369.43750942918928
 11
961.77188949442836
 21
370.74005731514831
  0
LINE
  8
_0-0_
  6
CONTINUOUS
 62
    2
 10
931.01982037438768
 20
346.35194922578944
 11
955.40792846374654
 21
370.74005731514649
  0
LINE
  8
_0-0_
  6
CONTINUOUS
 62
    2
 10
931.01982037439132
 20
352.71591025646762
 11
949.04396743307018
 21
370.74005731514649
  0
LINE
  8
_0-0_
  6
CONTINUOUS
 62
    2
 10
931.01982037439132
 20
359.07987128714763
 11
942.680006402392
 21
370.74005731514831
  0
LINE
  8
_0-0_
  6
CONTINUOUS
 62
    2
 10
931.0198203743895
 20
365.44383231782581
 11
936.31604537171199
 21
370.74005731514831
  0
LINE
  8
_0-0_
  6
CONTINUOUS
 62
    7
 10
749.00553609545398
 20
227.5942743390226
 11
962.5198203743895
 21
441.10855861795812
  0
LINE
  8
_0-0_
  6
CONTINUOUS
 62
    7
 10
764.91543867215034
 20
227.5942743390226
 11
962.5198203743895
 21
425.19865604126176
  0
LINE
  8
_0-0_
  6
CONTINUOUS
 62
    7
 10
780.82534124884671
 20
227.5942743390226
 11
917.5198203743895
 21
364.28875346456539
  0
LINE
  8
_0-0_
  6
CONTINUOUS
 62
    7
 10
917.5198203743895
 20
227.5942743390226
 11
917.5198203743895
 21
370.74005731514831
  0
LINE
  8
_0-0_
  6
CONTINUOUS
 62
    4
 10
931.0198203743895
 20
370.74005731514831
 11
931.0198203743895
 21
227.5942743390226
  0
LINE
  8
_0-0_
  6
CONTINUOUS
 62
    7
 10
962.5198203743895
 20
370.74005731514831
 11
962.5198203743895
 21
515.6556359188819
  0
LINE
  8
_0-0_
  6
CONTINUOUS
 62
    7
 10
942.79811433799625
 20
361.98705854438435
 11
1004.3614497458158
 21
468.61788335413189
  0
POINT
  8
_0-0_
 62
    7
 10
942.79811433799625
 20
361.98705854438435
  0
TEXT
  8
_0-0_
 62
    7
 10
1007.0850241938066
 20
459.52581832561395
 40
21.617968000000001
 41
1
 50
0
  1
ｼｰﾘﾝｸﾞ
  0
LINE
  8
_0-0_
  6
CONTINUOUS
 62
    7
 10
1223.9254991561129
 20
835.99224806201551
 11
1523.9254991561129
 21
835.99224806201551
  0
LINE
  8
_0-0_
  6
CONTINUOUS
 62
    7
 10
873.92549915611301
 20
793.99296755023647
 11
1095.9247796678937
 21
1015.9922480620155
  0
LINE
  8
_0-0_
  6
CONTINUOUS
 62
    7
 10
873.92549915611301
 20
786.92189973837071
 11
1102.9958474797577
 21
1015.9922480620155
  0
LINE
  8
_0-0_
  6
CONTINUOUS
 62
    7
 10
873.92549915611391
 20
779.85083192650677
 11
1110.0669152916234
 21
1015.9922480620155
  0
LINE
  8
_0-0_
  6
CONTINUOUS
 62
    7
 10
1079.1989496475881
 20
772.99224806201551
 11
1322.1989496475881
 21
1015.9922480620155
  0
LINE
  8
_0-0_
  6
CONTINUOUS
 62
    7
 10
1043.9254991561129
 20
1195.9922480620155
 11
1023.925499156113
 21
1195.9922480620155
  0
ARC
  8
_0-0_
  6
CONTINUOUS
 62
    2
 10
1066.5536812488153
 20
1159.3640659693131
 40
43.054132766050088
 50
121.70696983898064
 51
148.29303016101935
  0
LINE
  8
_0-0_
  6
CONTINUOUS
 62
    2
 10
1029.9254991561129
 20
1182.3246617864427
 11
1030.5044093276501
 21
1182.9035719579799
  0
LINE
  8
_0-0_
  6
CONTINUOUS
 62
    2
 10
1043.0141752601485
 20
1195.4133378904783
 11
1043.5930854316857
 21
1195.9922480620155
  0
LINE
  8
_0-0_
  6
CONTINUOUS
 62
    2
 10
1029.925499156112
 20
1185.1530889111893
 11
1040.7646583069381
 21
1195.9922480620146
  0
LINE
  8
_0-0_
  6
CONTINUOUS
 62
    2
 10
1029.9254991561138
 20
1187.9815160359351
 11
1037.9362311821933
 21
1195.9922480620146
  0
LINE
  8
_0-0_
  6
CONTINUOUS
 62
    2
 10
1029.9254991561138
 20
1190.8099431606818
 11
1035.1078040574475
 21
1195.9922480620155
  0
LINE
  8
_0-0_
  6
CONTINUOUS
 62
    2
 10
1029.9254991561129
 20
1193.6383702854275
 11
1032.2793769327009
 21
1195.9922480620155
  0
LINE
  8
_0-0_
  6
CONTINUOUS
 62
    7
 10
873.92549915611301
 20
1013.1960697180659
 11
1023.9254991561129
 21
1163.1960697180659
  0
LINE
  8
_0-0_
  6
CONTINUOUS
 62
    7
 10
873.92549915611301
 20
1020.2671375299308
 11
1023.9254991561129
 21
1170.2671375299308
  0
LINE
  8
_0-0_
  6
CONTINUOUS
 62
    7
 10
1043.9254991561129
 20
1195.9922480620155
 11
1043.9254991561129
 21
1434.4326702173551
  0
POINT
  8
_0-0_
 62
    7
 10
1216.1733265094581
 20
1023.4922480620155
  0
LINE
  8
_0-0_
  6
CONTINUOUS
 62
    7
 10
1216.1733265094581
 20
1023.4922480620155
 11
1275.9312715000369
 21
1126.9960449416042
  0
LINE
  8
_0-0_
  6
CONTINUOUS
 62
    7
 10
1083.209770403575
 20
1057.9922480620155
 11
1121.0381975283208
 21
1057.9922480620155
  0
LINE
  8
_0-0_
  6
CONTINUOUS
 62
  136
 10
1025.9254991561129
 20
1086.1049464342234
 11
1053.0381975283208
 21
1058.9922480620155
  0
LINE
  8
_0-0_
  6
CONTINUOUS
 62
    6
 10
1023.9254991561126
 20
1043.4655573704542
 11
1031.4521898476746
 21
1050.9922480620164
  0
LINE
  8
_0-0_
  6
CONTINUOUS
 62
    6
 10
1023.9254991561126
 20
1029.3234217467227
 11
1045.5943254714057
 21
1050.9922480620164
  0
LINE
  8
_0-0_
  6
CONTINUOUS
 62
    6
 10
1024.7364610951349
 20
1015.9922480620146
 11
1059.7364610951349
 21
1050.9922480620146
  0
LINE
  8
_0-0_
  6
CONTINUOUS
 62
    6
 10
1038.8785967188678
 20
1015.9922480620164
 11
1073.8785967188678
 21
1050.9922480620164
  0
LINE
  8
_0-0_
  6
CONTINUOUS
 62
    6
 10
1053.0207323425984
 20
1015.9922480620164
 11
1088.0207323425984
 21
1050.9922480620164
  0
LINE
  8
_0-0_
  6
CONTINUOUS
 62
    6
 10
1067.1628679663281
 20
1015.9922480620155
 11
1102.1628679663277
 21
1050.9922480620146
  0
LINE
  8
_0-0_
  6
CONTINUOUS
 62
    6
 10
1081.3050035900606
 20
1015.9922480620164
 11
1116.3050035900606
 21
1050.9922480620164
  0
LINE
  8
_0-0_
  6
CONTINUOUS
 62
    6
 10
1095.4471392137912
 20
1015.9922480620164
 11
1130.4471392137912
 21
1050.9922480620164
  0
LINE
  8
_0-0_
  6
CONTINUOUS
 62
    6
 10
1109.5892748375209
 20
1015.9922480620146
 11
1144.5892748375209
 21
1050.9922480620155
  0
LINE
  8
_0-0_
  6
CONTINUOUS
 62
    6
 10
1123.7314104612528
 20
1015.9922480620155
 11
1158.7314104612533
 21
1050.9922480620164
  0
LINE
  8
_0-0_
  6
CONTINUOUS
 62
    6
 10
1137.8735460849839
 20
1015.9922480620164
 11
1172.8735460849844
 21
1050.9922480620164
  0
LINE
  8
_0-0_
  6
CONTINUOUS
 62
    6
 10
1152.0156817087136
 20
1015.9922480620155
 11
1187.0156817087136
 21
1050.9922480620146
  0
LINE
  8
_0-0_
  6
CONTINUOUS
 62
    6
 10
1166.1578173324456
 20
1015.9922480620164
 11
1201.1578173324456
 21
1050.9922480620155
  0
LINE
  8
_0-0_
  6
CONTINUOUS
 62
    6
 10
1180.2999529561771
 20
1015.9922480620164
 11
1215.2999529561771
 21
1050.9922480620164
  0
LINE
  8
_0-0_
  6
CONTINUOUS
 62
    6
 10
1194.4420885799063
 20
1015.9922480620155
 11
1229.4420885799063
 21
1050.9922480620155
  0
LINE
  8
_0-0_
  6
CONTINUOUS
 62
    6
 10
1208.5842242036383
 20
1015.9922480620155
 11
1243.5842242036383
 21
1050.9922480620155
  0
LINE
  8
_0-0_
  6
CONTINUOUS
 62
    6
 10
1222.7263598273694
 20
1015.9922480620164
 11
1257.7263598273694
 21
1050.9922480620164
  0
LINE
  8
_0-0_
  6
CONTINUOUS
 62
    6
 10
1236.8684954510991
 20
1015.9922480620146
 11
1271.8684954510991
 21
1050.9922480620146
  0
LINE
  8
_0-0_
  6
CONTINUOUS
 62
    6
 10
1251.0106310748311
 20
1015.9922480620155
 11
1286.0106310748311
 21
1050.9922480620155
  0
LINE
  8
_0-0_
  6
CONTINUOUS
 62
    6
 10
1265.1527666985617
 20
1015.9922480620164
 11
1300.1527666985621
 21
1050.9922480620164
  0
LINE
  8
_0-0_
  6
CONTINUOUS
 62
    6
 10
1279.2949023222923
 20
1015.9922480620155
 11
1314.2949023222923
 21
1050.9922480620146
  0
LINE
  8
_0-0_
  6
CONTINUOUS
 62
    6
 10
1293.4370379460247
 20
1015.9922480620164
 11
1328.4370379460247
 21
1050.9922480620164
  0
LINE
  8
_0-0_
  6
CONTINUOUS
 62
    6
 10
1307.5791735697544
 20
1015.9922480620155
 11
1342.5791735697544
 21
1050.9922480620164
  0
LINE
  8
_0-0_
  6
CONTINUOUS
 62
    6
 10
1321.7213091934868
 20
1015.9922480620164
 11
1356.7213091934868
 21
1050.9922480620164
  0
LINE
  8
_0-0_
  6
CONTINUOUS
 62
    6
 10
1335.8634448172174
 20
1015.9922480620164
 11
1370.8634448172174
 21
1050.9922480620164
  0
LINE
  8
_0-0_
  6
CONTINUOUS
 62
    6
 10
1350.0055804409471
 20
1015.9922480620164
 11
1385.0055804409471
 21
1050.9922480620164
  0
LINE
  8
_0-0_
  6
CONTINUOUS
 62
    6
 10
1364.1477160646796
 20
1015.9922480620164
 11
1399.1477160646796
 21
1050.9922480620164
  0
LINE
  8
_0-0_
  6
CONTINUOUS
 62
    6
 10
1378.2898516884102
 20
1015.9922480620164
 11
1413.2898516884102
 21
1050.9922480620164
  0
LINE
  8
_0-0_
  6
CONTINUOUS
 62
    6
 10
1392.4319873121408
 20
1015.9922480620164
 11
1427.4319873121399
 21
1050.9922480620164
  0
LINE
  8
_0-0_
  6
CONTINUOUS
 62
    6
 10
1406.5741229358723
 20
1015.9922480620164
 11
1441.5741229358723
 21
1050.9922480620164
  0
LINE
  8
_0-0_
  6
CONTINUOUS
 62
    6
 10
1420.7162585596038
 20
1015.9922480620164
 11
1455.7162585596029
 21
1050.9922480620164
  0
LINE
  8
_0-0_
  6
CONTINUOUS
 62
    6
 10
1434.8583941833326
 20
1015.9922480620146
 11
1469.8583941833326
 21
1050.9922480620146
  0
LINE
  8
_0-0_
  6
CONTINUOUS
 62
    6
 10
1449.000529807065
 20
1015.9922480620164
 11
1484.0005298070655
 21
1050.9922480620164
  0
LINE
  8
_0-0_
  6
CONTINUOUS
 62
    6
 10
1463.1426654307966
 20
1015.9922480620164
 11
1498.1426654307966
 21
1050.9922480620164
  0
LINE
  8
_0-0_
  6
CONTINUOUS
 62
    6
 10
1477.2848010545258
 20
1015.9922480620146
 11
1512.2848010545258
 21
1050.9922480620146
  0
LINE
  8
_0-0_
  6
CONTINUOUS
 62
    6
 10
1491.4269366782582
 20
1015.9922480620164
 11
1523.9254991561129
 21
1048.4908105398711
  0
LINE
  8
_0-0_
  6
CONTINUOUS
 62
    6
 10
1505.5690723019893
 20
1015.9922480620164
 11
1523.9254991561129
 21
1034.3486749161395
  0
LINE
  8
_0-0_
  6
CONTINUOUS
 62
    6
 10
1519.7112079257186
 20
1015.9922480620146
 11
1523.9254991561138
 21
1020.2065392924098
  0
LINE
  8
_0-0_
  6
CONTINUOUS
 62
    6
 10
1512.8393354891114
 20
1050.9922480620164
 11
1523.9254991561133
 21
1039.906084395014
  0
LINE
  8
_0-0_
  6
CONTINUOUS
 62
    6
 10
1498.6971998653808
 20
1050.9922480620155
 11
1523.9254991561124
 21
1025.7639487712834
  0
LINE
  8
_0-0_
  6
CONTINUOUS
 62
    6
 10
1484.5550642416497
 20
1050.9922480620164
 11
1519.5550642416497
 21
1015.9922480620164
  0
LINE
  8
_0-0_
  6
CONTINUOUS
 62
    6
 10
1470.4129286179182
 20
1050.9922480620164
 11
1505.4129286179186
 21
1015.9922480620164
  0
LINE
  8
_0-0_
  6
CONTINUOUS
 62
    6
 10
1456.2707929941876
 20
1050.9922480620155
 11
1491.270792994188
 21
1015.9922480620155
  0
LINE
  8
_0-0_
  6
CONTINUOUS
 62
    6
 10
1442.128657370456
 20
1050.9922480620164
 11
1477.1286573704556
 21
1015.9922480620164
  0
LINE
  8
_0-0_
  6
CONTINUOUS
 62
    6
 10
1427.9865217467254
 20
1050.9922480620164
 11
1462.9865217467254
 21
1015.9922480620164
  0
LINE
  8
_0-0_
  6
CONTINUOUS
 62
    6
 10
1413.8443861229948
 20
1050.9922480620146
 11
1448.8443861229948
 21
1015.9922480620155
  0
LINE
  8
_0-0_
  6
CONTINUOUS
 62
    6
 10
1399.7022504992633
 20
1050.9922480620164
 11
1434.7022504992624
 21
1015.9922480620164
  0
LINE
  8
_0-0_
  6
CONTINUOUS
 62
    6
 10
1385.5601148755327
 20
1050.9922480620164
 11
1420.5601148755327
 21
1015.9922480620164
  0
LINE
  8
_0-0_
  6
CONTINUOUS
 62
    6
 10
1371.4179792518021
 20
1050.9922480620155
 11
1406.4179792518021
 21
1015.9922480620155
  0
LINE
  8
_0-0_
  6
CONTINUOUS
 62
    6
 10
1357.2758436280706
 20
1050.9922480620164
 11
1392.2758436280697
 21
1015.9922480620164
  0
LINE
  8
_0-0_
  6
CONTINUOUS
 62
    6
 10
1343.13370800434
 20
1050.9922480620155
 11
1378.13370800434
 21
1015.9922480620164
  0
LINE
  8
_0-0_
  6
CONTINUOUS
 62
    6
 10
1328.9915723806093
 20
1050.9922480620155
 11
1363.9915723806093
 21
1015.9922480620155
  0
LINE
  8
_0-0_
  6
CONTINUOUS
 62
    6
 10
1314.8494367568778
 20
1050.9922480620164
 11
1349.8494367568778
 21
1015.9922480620164
  0
LINE
  8
_0-0_
  6
CONTINUOUS
 62
    6
 10
1300.7073011331468
 20
1050.9922480620164
 11
1335.7073011331472
 21
1015.9922480620164
  0
LINE
  8
_0-0_
  6
CONTINUOUS
 62
    6
 10
1286.5651655094161
 20
1050.9922480620155
 11
1321.5651655094166
 21
1015.9922480620155
  0
LINE
  8
_0-0_
  6
CONTINUOUS
 62
    6
 10
1272.4230298856842
 20
1050.9922480620164
 11
1307.4230298856846
 21
1015.9922480620164
  0
LINE
  8
_0-0_
  6
CONTINUOUS
 62
    6
 10
1258.2808942619536
 20
1050.9922480620164
 11
1293.280894261954
 21
1015.9922480620164
  0
LINE
  8
_0-0_
  6
CONTINUOUS
 62
    6
 10
1244.1387586382239
 20
1050.9922480620155
 11
1279.1387586382234
 21
1015.9922480620155
  0
LINE
  8
_0-0_
  6
CONTINUOUS
 62
    6
 10
1229.9966230144914
 20
1050.9922480620164
 11
1264.9966230144914
 21
1015.9922480620164
  0
LINE
  8
_0-0_
  6
CONTINUOUS
 62
    6
 10
1215.8544873907613
 20
1050.9922480620155
 11
1250.8544873907617
 21
1015.9922480620155
  0
LINE
  8
_0-0_
  6
CONTINUOUS
 62
    6
 10
1201.7123517670311
 20
1050.9922480620146
 11
1236.7123517670307
 21
1015.9922480620155
  0
LINE
  8
_0-0_
  6
CONTINUOUS
 62
    6
 10
1187.5702161432987
 20
1050.9922480620164
 11
1222.5702161432987
 21
1015.9922480620164
  0
LINE
  8
_0-0_
  6
CONTINUOUS
 62
    6
 10
1173.428080519569
 20
1050.9922480620155
 11
1208.428080519569
 21
1015.9922480620155
  0
LINE
  8
_0-0_
  6
CONTINUOUS
 62
    6
 10
1159.2859448958384
 20
1050.9922480620146
 11
1194.2859448958379
 21
1015.9922480620164
  0
LINE
  8
_0-0_
  6
CONTINUOUS
 62
    6
 10
1145.143809272106
 20
1050.9922480620164
 11
1180.143809272106
 21
1015.9922480620164
  0
LINE
  8
_0-0_
  6
CONTINUOUS
 62
    6
 10
1131.0016736483763
 20
1050.9922480620146
 11
1166.0016736483758
 21
1015.9922480620146
  0
LINE
  8
_0-0_
  6
CONTINUOUS
 62
    6
 10
1116.8595380246456
 20
1050.9922480620146
 11
1151.8595380246456
 21
1015.9922480620146
  0
LINE
  8
_0-0_
  6
CONTINUOUS
 62
    6
 10
1102.7174024009132
 20
1050.9922480620164
 11
1137.7174024009132
 21
1015.9922480620164
  0
LINE
  8
_0-0_
  6
CONTINUOUS
 62
    6
 10
1088.5752667771835
 20
1050.9922480620146
 11
1123.5752667771831
 21
1015.9922480620146
  0
LINE
  8
_0-0_
  6
CONTINUOUS
 62
    6
 10
1074.4331311534529
 20
1050.9922480620146
 11
1109.4331311534525
 21
1015.9922480620164
  0
LINE
  8
_0-0_
  6
CONTINUOUS
 62
    6
 10
1060.2909955297205
 20
1050.9922480620164
 11
1095.2909955297205
 21
1015.9922480620164
  0
LINE
  8
_0-0_
  6
CONTINUOUS
 62
    6
 10
1046.1488599059908
 20
1050.9922480620146
 11
1081.1488599059908
 21
1015.9922480620146
  0
LINE
  8
_0-0_
  6
CONTINUOUS
 62
    6
 10
1032.0067242822602
 20
1050.9922480620146
 11
1067.0067242822602
 21
1015.9922480620146
  0
LINE
  8
_0-0_
  6
CONTINUOUS
 62
    6
 10
1023.9254991561135
 20
1044.9313375644299
 11
1052.8645886585277
 21
1015.9922480620164
  0
LINE
  8
_0-0_
  6
CONTINUOUS
 62
    6
 10
1023.9254991561126
 20
1030.7892019407002
 11
1038.7224530347971
 21
1015.9922480620146
  0
LINE
  8
_0-0_
  6
CONTINUOUS
 62
    6
 10
1023.925499156113
 20
1016.6470663169678
 11
1024.5803174110652
 21
1015.9922480620155
  0
LINE
  8
_0-0_
  6
CONTINUOUS
 62
    6
 10
1023.925499156113
 20
1050.9922480620155
 11
1023.925499156113
 21
1015.9922480620155
  0
LINE
  8
_0-0_
  6
CONTINUOUS
 62
    6
 10
1523.9254991561133
 20
1050.9922480620155
 11
1023.925499156113
 21
1050.9922480620155
  0
LINE
  8
_0-0_
  6
CONTINUOUS
 62
    6
 10
1023.925499156113
 20
1015.9922480620155
 11
1523.9254991561133
 21
1015.9922480620155
  0
LINE
  8
_0-0_
  6
CONTINUOUS
 62
    1
 10
1365.1989496475876
 20
1056.9922480620155
 11
1395.1989496475876
 21
1056.9922480620155
  0
LINE
  8
_0-0_
  6
CONTINUOUS
 62
    1
 10
1395.1989496475876
 20
1057.2422480620155
 11
1365.1989496475876
 21
1057.2422480620155
  0
LINE
  8
_0-0_
  6
CENTER2
 62
    1
 10
1380.1989496475876
 20
1063.4071673132669
 11
1380.1989496475876
 21
981.06725478518388
  0
LINE
  8
_0-0_
  6
CONTINUOUS
 62
    1
 10
999.92549915611301
 20
1100.690732871851
 11
1000.6112314623098
 21
1101.3764651780477
  0
LINE
  8
_0-0_
  6
CONTINUOUS
 62
    1
 10
999.92549915611301
 20
1100.690732871851
 11
1000.6112314623098
 21
1100.0050005656533
  0
LINE
  8
_0-0_
  6
DASHED1
 62
    1
 10
1000.6112314623098
 20
1101.3764651780477
 11
1001.175499156113
 21
1101.940732871851
  0
LINE
  8
_0-0_
  6
DASHED1
 62
    1
 10
1000.6112314623098
 20
1100.0050005656533
 11
1001.175499156113
 21
1099.440732871851
  0
LINE
  8
_0-0_
  6
CONTINUOUS
 62
    1
 10
1000.0808112060405
 20
1097.7272024179358
 11
999.96321668486428
 21
1099.9710395502254
  0
LINE
  8
_0-0_
  6
CONTINUOUS
 62
    1
 10
999.96321668486428
 20
1101.4104261934765
 11
1000.0808112060405
 21
1103.6542633257652
  0
LINE
  8
_0-0_
  6
CONTINUOUS
 62
    4
 10
1077.1814251653477
 20
1067.9922480620155
 11
1084.709770403575
 21
1067.9922480620155
  0
LINE
  8
_0-0_
  6
CONTINUOUS
 62
    7
 10
1121.0381975283208
 20
1057.9922480620155
 11
1121.0381975283208
 21
1056.9922480620155
  0
LINE
  8
_0-0_
  6
CONTINUOUS
 62
    7
 10
1053.0381975283208
 20
1058.9922480620155
 11
1053.0381975283208
 21
1059.9922480620155
  0
LINE
  8
_0-0_
  6
CONTINUOUS
 62
    7
 10
1024.9254991561129
 20
1116.2765193094776
 11
1026.9254991561129
 21
1116.2765193094776
  0
LINE
  8
_0-0_
  6
CONTINUOUS
 62
    7
 10
1025.9254991561129
 20
1086.1049464342234
 11
1026.9254991561129
 21
1086.1049464342234
  0
LINE
  8
_0-0_
  6
CONTINUOUS
 62
    1
 10
1008.925499156113
 20
1098.190732871851
 11
1000.0808112060405
 21
1097.7272024179358
  0
LINE
  8
_0-0_
  6
CONTINUOUS
 62
    1
 10
1025.9254991561129
 20
1098.190732871851
 11
1025.9254991561129
 21
1093.190732871851
  0
LINE
  8
_0-0_
  6
CONTINUOUS
 62
    1
 10
1025.9254991561129
 20
1103.190732871851
 11
1025.9254991561129
 21
1108.190732871851
  0
LINE
  8
_0-0_
  6
CONTINUOUS
 62
    1
 10
1027.9254991561129
 20
1102.5155616309396
 11
1027.9254991561129
 21
1098.8659041127605
  0
LINE
  8
_0-0_
  6
CONTINUOUS
 62
    1
 10
1027.9254991561129
 20
1102.5155616309405
 11
1027.9254991561129
 21
1102.5155616309405
  0
LINE
  8
_0-0_
  6
CONTINUOUS
 62
    1
 10
1027.9254991561129
 20
1102.5155616309405
 11
1027.047433113926
 21
1105.8913426639938
  0
LINE
  8
_0-0_
  6
CONTINUOUS
 62
    1
 10
1027.047433113926
 20
1105.8913426639938
 11
1025.9254991561129
 21
1108.190732871851
  0
LINE
  8
_0-0_
  6
CONTINUOUS
 62
    1
 10
1025.9254991561129
 20
1093.190732871851
 11
1025.9254991561129
 21
1093.190732871851
  0
LINE
  8
_0-0_
  6
CONTINUOUS
 62
    1
 10
1025.9254991561129
 20
1093.190732871851
 11
1027.391016923719
 21
1096.4650715577975
  0
LINE
  8
_0-0_
  6
CONTINUOUS
 62
    1
 10
1027.391016923719
 20
1096.4650715577975
 11
1027.9254991561129
 21
1098.8659041127614
  0
LINE
  8
_0-0_
  6
CONTINUOUS
 62
    1
 10
1028.0938277756891
 20
1099.2120204409766
 11
1028.0938277756891
 21
1099.2120204409766
  0
LINE
  8
_0-0_
  6
CONTINUOUS
 62
    1
 10
1028.0938277756891
 20
1099.2120204409766
 11
1027.9254991561129
 21
1099.440732871851
  0
LINE
  8
_0-0_
  6
CONTINUOUS
 62
    1
 10
1027.9254991561129
 20
1101.940732871851
 11
1027.9254991561129
 21
1101.940732871851
  0
LINE
  8
_0-0_
  6
CONTINUOUS
 62
    1
 10
1027.9254991561129
 20
1101.940732871851
 11
1028.0938277756891
 21
1102.1694453027253
  0
LINE
  8
_0-0_
  6
CONTINUOUS
 62
    1
 10
1028.0938277756891
 20
1099.2120204409766
 11
1028.0938277756891
 21
1099.2120204409766
  0
LINE
  8
_0-0_
  6
CONTINUOUS
 62
    1
 10
1028.0938277756891
 20
1099.2120204409766
 11
1028.1233674505897
 21
1099.468325069759
  0
LINE
  8
_0-0_
  6
CONTINUOUS
 62
    1
 10
1028.1233674505897
 20
1099.468325069759
 11
1028.1468949974887
 21
1099.7617719410398
  0
LINE
  8
_0-0_
  6
CONTINUOUS
 62
    1
 10
1028.1468949974887
 20
1099.7617719410398
 11
1028.1636955437793
 21
1100.0834448201265
  0
LINE
  8
_0-0_
  6
CONTINUOUS
 62
    1
 10
1028.1636955437793
 20
1100.0834448201265
 11
1028.1732586133639
 21
1100.423569839362
  0
LINE
  8
_0-0_
  6
CONTINUOUS
 62
    1
 10
1028.1732586133639
 20
1100.423569839362
 11
1028.1752936372122
 21
1100.7718124721489
  0
LINE
  8
_0-0_
  6
CONTINUOUS
 62
    1
 10
1028.1752936372122
 20
1100.7718124721489
 11
1028.1697387821546
 21
1101.1175915423089
  0
LINE
  8
_0-0_
  6
CONTINUOUS
 62
    1
 10
1028.1697387821546
 20
1101.1175915423089
 11
1028.1567628296507
 21
1101.4504007277681
  0
LINE
  8
_0-0_
  6
CONTINUOUS
 62
    1
 10
1028.1567628296507
 20
1101.4504007277681
 11
1028.1367600474516
 21
1101.7601277898355
  0
LINE
  8
_0-0_
  6
CONTINUOUS
 62
    1
 10
1028.1367600474516
 20
1101.7601277898355
 11
1028.1103382099723
 21
1102.03736182846
  0
LINE
  8
_0-0_
  6
CONTINUOUS
 62
    1
 10
1028.1103382099723
 20
1102.03736182846
 11
1028.0938277756891
 21
1102.1694453027253
  0
LINE
  8
_0-0_
  6
DASHED1
 62
    1
 10
1027.9254991561129
 20
1101.940732871851
 11
1001.175499156113
 21
1101.940732871851
  0
LINE
  8
_0-0_
  6
DASHED1
 62
    1
 10
1027.9254991561129
 20
1099.440732871851
 11
1001.175499156113
 21
1099.440732871851
  0
LINE
  8
_0-0_
  6
CONTINUOUS
 62
    1
 10
1008.925499156113
 20
1103.190732871851
 11
1025.9254991561129
 21
1103.190732871851
  0
LINE
  8
_0-0_
  6
CONTINUOUS
 62
    1
 10
1008.925499156113
 20
1103.190732871851
 11
1000.0808112060405
 21
1103.6542633257652
  0
LINE
  8
_0-0_
  6
CONTINUOUS
 62
    1
 10
1008.925499156113
 20
1100.940732871851
 11
999.96321668486428
 21
1101.4104261934765
  0
LINE
  8
_0-0_
  6
CONTINUOUS
 62
    1
 10
1008.925499156113
 20
1098.190732871851
 11
1025.9254991561129
 21
1098.190732871851
  0
LINE
  8
_0-0_
  6
CONTINUOUS
 62
    1
 10
1008.925499156113
 20
1100.440732871851
 11
999.96321668486428
 21
1099.9710395502254
  0
LINE
  8
_0-0_
  6
CONTINUOUS
 62
    1
 10
1008.925499156113
 20
1100.440732871851
 11
1008.925499156113
 21
1100.940732871851
  0
LINE
  8
_0-0_
  6
CONTINUOUS
 62
    7
 10
1026.9254991561129
 20
1086.1049464342234
 11
1026.9254991561129
 21
1092.9410143982016
  0
LINE
  8
_0-0_
  6
CONTINUOUS
 62
    7
 10
1026.9254991561129
 20
1108.4404513454986
 11
1026.9254991561129
 21
1116.2765193094776
  0
LINE
  8
_0-0_
  6
CONTINUOUS
 62
    7
 10
1026.9254991561131
 20
1092.9410143982025
 11
1026.9254991561131
 21
1092.9410143982025
  0
LINE
  8
_0-0_
  6
CONTINUOUS
 62
    7
 10
1026.9254991561131
 20
1092.9410143982025
 11
1028.4098897342471
 21
1096.3890006415593
  0
LINE
  8
_0-0_
  6
CONTINUOUS
 62
    7
 10
1028.4098897342471
 20
1096.3890006415593
 11
1029.0287965184618
 21
1099.9676928419519
  0
LINE
  8
_0-0_
  6
CONTINUOUS
 62
    7
 10
1029.0287965184618
 20
1099.9676928419519
 11
1028.7634143393004
 21
1103.5683542477773
  0
LINE
  8
_0-0_
  6
CONTINUOUS
 62
    7
 10
1028.7634143393004
 20
1103.5683542477773
 11
1027.6218066999872
 21
1107.0815805842417
  0
LINE
  8
_0-0_
  6
CONTINUOUS
 62
    7
 10
1027.6218066999872
 20
1107.0815805842417
 11
1026.9254991561131
 21
1108.4404513454995
  0
LINE
  8
_0-0_
  6
CENTER2
 62
    1
 10
1033.4157269211209
 20
1100.690732871851
 11
995.63867470867729
 21
1100.690732871851
  0
LINE
  8
_0-0_
  6
CONTINUOUS
 62
    4
 10
1031.9254991561129
 20
1088.5902278084625
 11
1031.9254991561129
 21
1091.7761173263636
  0
LINE
  8
_0-0_
  6
CONTINUOUS
 62
    4
 10
1031.9254991561131
 20
1091.7761173263648
 11
1031.9254991561131
 21
1091.7761173263648
  0
LINE
  8
_0-0_
  6
CONTINUOUS
 62
    4
 10
1031.9254991561131
 20
1091.7761173263648
 11
1033.4958068683086
 21
1096.0944059596789
  0
LINE
  8
_0-0_
  6
CONTINUOUS
 62
    4
 10
1033.4958068683086
 20
1096.0944059596789
 11
1034.0460977680643
 21
1100.5523516603657
  0
LINE
  8
_0-0_
  6
CONTINUOUS
 62
    4
 10
1034.0460977680643
 20
1100.5523516603657
 11
1033.5596515448519
 21
1105.0145020041396
  0
LINE
  8
_0-0_
  6
CONTINUOUS
 62
    4
 10
1033.5596515448519
 20
1105.0145020041396
 11
1032.05124862101
 21
1109.3452768107613
  0
LINE
  8
_0-0_
  6
CONTINUOUS
 62
    4
 10
1032.05124862101
 20
1109.3452768107613
 11
1031.9254991561131
 21
1109.6053484173372
  0
LINE
  8
_0-0_
  6
CONTINUOUS
 62
    4
 10
1031.9254991561129
 20
1109.6053484173365
 11
1031.9254991561129
 21
1117.7765193094776
  0
LINE
  8
_0-0_
  6
CONTINUOUS
 62
    4
 10
1031.9254991561129
 20
1117.7765193094776
 11
1029.9254991561129
 21
1119.7765193094776
  0
LINE
  8
_0-0_
  6
CONTINUOUS
 62
    7
 10
1083.209770403575
 20
1057.9922480620155
 11
1083.209770403575
 21
1059.9922480620155
  0
LINE
  8
_0-0_
  6
CONTINUOUS
 62
    7
 10
1053.0381975283208
 20
1059.9922480620155
 11
1059.8742654922989
 21
1059.9922480620155
  0
LINE
  8
_0-0_
  6
CONTINUOUS
 62
    7
 10
1075.3737024395969
 20
1059.9922480620155
 11
1083.209770403575
 21
1059.9922480620155
  0
LINE
  8
_0-0_
  6
CONTINUOUS
 62
    7
 10
1075.3737024395959
 20
1059.9922480620155
 11
1075.3737024395959
 21
1059.9922480620155
  0
LINE
  8
_0-0_
  6
CONTINUOUS
 62
    7
 10
1075.3737024395959
 20
1059.9922480620155
 11
1071.9257161962391
 21
1061.4766386401495
  0
LINE
  8
_0-0_
  6
CONTINUOUS
 62
    7
 10
1071.9257161962391
 20
1061.4766386401495
 11
1068.3470239958465
 21
1062.0955454243642
  0
LINE
  8
_0-0_
  6
CONTINUOUS
 62
    7
 10
1068.3470239958465
 20
1062.0955454243642
 11
1064.7463625900211
 21
1061.830163245203
  0
LINE
  8
_0-0_
  6
CONTINUOUS
 62
    7
 10
1064.7463625900211
 20
1061.830163245203
 11
1061.2331362535567
 21
1060.6885556058896
  0
LINE
  8
_0-0_
  6
CONTINUOUS
 62
    7
 10
1061.2331362535567
 20
1060.6885556058896
 11
1059.8742654922989
 21
1059.9922480620155
  0
LINE
  8
_0-0_
  6
CONTINUOUS
 62
    4
 10
1031.9254991561129
 20
1088.5902278084625
 11
1052.5234789025599
 21
1067.9922480620155
  0
LINE
  8
_0-0_
  6
CONTINUOUS
 62
    4
 10
1052.5234789025599
 20
1067.9922480620155
 11
1058.0665427665481
 21
1067.9922480620155
  0
LINE
  8
_0-0_
  6
CONTINUOUS
 62
    4
 10
1077.1814251653475
 20
1067.9922480620155
 11
1077.1814251653475
 21
1067.9922480620155
  0
LINE
  8
_0-0_
  6
CONTINUOUS
 62
    4
 10
1077.1814251653475
 20
1067.9922480620155
 11
1072.3397857500188
 21
1069.6082575257446
  0
LINE
  8
_0-0_
  6
CONTINUOUS
 62
    4
 10
1072.3397857500188
 20
1069.6082575257446
 11
1067.354859083792
 21
1070.111708070513
  0
LINE
  8
_0-0_
  6
CONTINUOUS
 62
    4
 10
1067.354859083792
 20
1070.111708070513
 11
1062.3781096409259
 21
1069.4873026062764
  0
LINE
  8
_0-0_
  6
CONTINUOUS
 62
    4
 10
1062.3781096409259
 20
1069.4873026062764
 11
1058.0665427665474
 21
1067.9922480620155
  0
LINE
  8
_0-0_
  6
CONTINUOUS
 62
    4
 10
1084.709770403575
 20
1067.9922480620155
 11
1086.709770403575
 21
1065.9922480620155
  0
LINE
  8
_0-0_
  6
CONTINUOUS
 62
    4
 10
1086.709770403575
 20
1065.9922480620155
 11
1523.9254991561129
 21
1065.9922480620155
  0
LINE
  8
_0-0_
  6
CONTINUOUS
 62
  136
 10
1023.925499156113
 20
1085.2765193094776
 11
1052.209770403575
 21
1056.9922480620155
  0
LINE
  8
_0-0_
  6
CONTINUOUS
 62
  136
 10
1052.209770403575
 20
1056.9922480620155
 11
1082.209770403575
 21
1056.9922480620155
  0
LINE
  8
_0-0_
  6
CONTINUOUS
 62
  136
 10
1082.209770403575
 20
1056.9922480620155
 11
1082.209770403575
 21
1058.9922480620155
  0
LINE
  8
_0-0_
  6
CONTINUOUS
 62
  136
 10
1023.925499156113
 20
1115.2765193094776
 11
1023.925499156113
 21
1085.2765193094776
  0
LINE
  8
_0-0_
  6
CONTINUOUS
 62
  136
 10
1023.925499156113
 20
1115.2765193094776
 11
1025.9254991561129
 21
1115.2765193094776
  0
LINE
  8
_0-0_
  6
CONTINUOUS
 62
  136
 10
1025.9254991561129
 20
1115.2765193094776
 11
1025.9254991561129
 21
1086.1049464342234
  0
LINE
  8
_0-0_
  6
CONTINUOUS
 62
    1
 10
1381.3019641169653
 20
988.99224806201551
 11
1384.290548211241
 21
989.25371529025801
  0
LINE
  8
_0-0_
  6
CONTINUOUS
 62
    1
 10
1381.1707311216765
 20
990.49224806201551
 11
1384.1593152159521
 21
990.75371529025801
  0
LINE
  8
_0-0_
  6
CONTINUOUS
 62
    1
 10
1381.0394981263876
 20
991.99224806201551
 11
1384.0280822206632
 21
992.25371529025801
  0
LINE
  8
_0-0_
  6
CONTINUOUS
 62
    1
 10
1380.9082651310987
 20
993.49224806201551
 11
1383.8968492253744
 21
993.75371529025801
  0
LINE
  8
_0-0_
  6
CONTINUOUS
 62
    1
 10
1380.7770321358098
 20
994.99224806201551
 11
1383.7656162300855
 21
995.25371529025801
  0
LINE
  8
_0-0_
  6
CONTINUOUS
 62
    1
 10
1380.6457991405209
 20
996.49224806201551
 11
1383.6343832347961
 21
996.75371529025801
  0
LINE
  8
_0-0_
  6
CONTINUOUS
 62
    1
 10
1380.514566145232
 20
997.99224806201551
 11
1383.5031502395072
 21
998.25371529025801
  0
LINE
  8
_0-0_
  6
CONTINUOUS
 62
    1
 10
1380.3833331499432
 20
999.49224806201551
 11
1383.3719172442184
 21
999.75371529025801
  0
LINE
  8
_0-0_
  6
CONTINUOUS
 62
    1
 10
1380.4489496475876
 20
998.74224806201551
 11
1381.4076628178123
 21
987.7841063830067
  0
LINE
  8
_0-0_
  6
CONTINUOUS
 62
    1
 10
1380.3833331499432
 20
999.49224806201551
 11
1380.014566145232
 21
999.49224806201551
  0
LINE
  8
_0-0_
  6
CONTINUOUS
 62
    1
 10
1380.4489496475876
 20
998.74224806201551
 11
1379.9489496475876
 21
998.74224806201551
  0
LINE
  8
_0-0_
  6
CONTINUOUS
 62
    1
 10
1379.0959351782099
 20
988.99224806201551
 11
1376.1073510839346
 21
989.25371529025801
  0
LINE
  8
_0-0_
  6
CONTINUOUS
 62
    1
 10
1379.2271681734987
 20
990.49224806201551
 11
1376.2385840792235
 21
990.75371529025801
  0
LINE
  8
_0-0_
  6
CONTINUOUS
 62
    1
 10
1379.3584011687876
 20
991.99224806201551
 11
1376.3698170745124
 21
992.25371529025801
  0
LINE
  8
_0-0_
  6
CONTINUOUS
 62
    1
 10
1379.4896341640765
 20
993.49224806201551
 11
1376.5010500698013
 21
993.75371529025801
  0
LINE
  8
_0-0_
  6
CONTINUOUS
 62
    1
 10
1379.6208671593654
 20
994.99224806201551
 11
1376.6322830650902
 21
995.25371529025801
  0
LINE
  8
_0-0_
  6
CONTINUOUS
 62
    1
 10
1379.7521001546543
 20
996.49224806201551
 11
1376.7635160603791
 21
996.75371529025801
  0
LINE
  8
_0-0_
  6
CONTINUOUS
 62
    1
 10
1379.8833331499432
 20
997.99224806201551
 11
1376.8947490556679
 21
998.25371529025801
  0
LINE
  8
_0-0_
  6
CONTINUOUS
 62
    1
 10
1380.014566145232
 20
999.49224806201551
 11
1377.0259820509568
 21
999.75371529025801
  0
LINE
  8
_0-0_
  6
CONTINUOUS
 62
    1
 10
1379.9489496475876
 20
998.74224806201551
 11
1378.9902364773639
 21
987.7841063830067
  0
LINE
  8
_0-0_
  6
CONTINUOUS
 62
    1
 10
1377.1989496475876
 20
1025.5976080185403
 11
1377.1989496475876
 21
1001.7307439664312
  0
LINE
  8
_0-0_
  6
CONTINUOUS
 62
    1
 10
1377.1989496475876
 20
1001.7307439664312
 11
1376.0016523830886
 21
988.04557361124921
  0
LINE
  8
_0-0_
  6
CONTINUOUS
 62
    1
 10
1383.1989496475876
 20
1001.7307439664312
 11
1384.3962469120875
 21
988.04557361124921
  0
LINE
  8
_0-0_
  6
CONTINUOUS
 62
    1
 10
1378.9902364773639
 20
987.7841063830067
 11
1376.0016523830886
 21
988.04557361124921
  0
LINE
  8
_0-0_
  6
CONTINUOUS
 62
    1
 10
1381.4076628178123
 20
987.7841063830067
 11
1384.3962469120875
 21
988.04557361124921
  0
LINE
  8
_0-0_
  6
CONTINUOUS
 62
    1
 10
1380.1989496475876
 20
987.49224806201551
 11
1378.6989496475876
 21
990.09032427336865
  0
LINE
  8
_0-0_
  6
CONTINUOUS
 62
    1
 10
1380.1989496475876
 20
987.49224806201551
 11
1381.6989496475876
 21
990.09032427336865
  0
LINE
  8
_0-0_
  6
CONTINUOUS
 62
    1
 10
1377.1989496475876
 20
1025.5976080185403
 11
1377.1989496475876
 21
1055.5976080185403
  0
LINE
  8
_0-0_
  6
CONTINUOUS
 62
    1
 10
1365.1989496475876
 20
1057.2422480620155
 11
1365.1989496475876
 21
1056.9922480620155
  0
LINE
  8
_0-0_
  6
CONTINUOUS
 62
    1
 10
1394.1989496475876
 20
1056.9922480620155
 11
1393.9489496475876
 21
1056.7422480620155
  0
LINE
  8
_0-0_
  6
CONTINUOUS
 62
    1
 10
1393.9489496475876
 20
1056.7422480620155
 11
1366.4489496475876
 21
1056.7422480620155
  0
LINE
  8
_0-0_
  6
CONTINUOUS
 62
    1
 10
1366.1989496475876
 20
1056.9922480620155
 11
1366.4489496475876
 21
1056.7422480620155
  0
LINE
  8
_0-0_
  6
CONTINUOUS
 62
    1
 10
1395.1989496475876
 20
1057.2422480620155
 11
1395.1989496475876
 21
1056.9922480620155
  0
LINE
  8
_0-0_
  6
CONTINUOUS
 62
    1
 10
1383.1989496475876
 20
1055.5976080185403
 11
1377.1989496475876
 21
1055.5976080185403
  0
LINE
  8
_0-0_
  6
CONTINUOUS
 62
    1
 10
1374.1989496475876
 20
1057.2422480620155
 11
1374.4489496475876
 21
1057.4922480620155
  0
LINE
  8
_0-0_
  6
CONTINUOUS
 62
    1
 10
1374.4489496475876
 20
1057.4922480620155
 11
1385.9489496475876
 21
1057.4922480620155
  0
LINE
  8
_0-0_
  6
CONTINUOUS
 62
    1
 10
1386.1989496475876
 20
1057.2422480620155
 11
1385.9489496475876
 21
1057.4922480620155
  0
LINE
  8
_0-0_
  6
CONTINUOUS
 62
    1
 10
1377.1989496475876
 20
1055.5976080185403
 11
1376.0543096041124
 21
1056.7422480620155
  0
LINE
  8
_0-0_
  6
CONTINUOUS
 62
    1
 10
1383.1989496475876
 20
1055.5976080185403
 11
1384.3435896910637
 21
1056.7422480620155
  0
LINE
  8
_0-0_
  6
CONTINUOUS
 62
    1
 10
1378.6989496475876
 20
1057.492248062016
 11
1378.6989496475876
 21
1057.492248062016
  0
LINE
  8
_0-0_
  6
CONTINUOUS
 62
    1
 10
1378.6989496475876
 20
1057.492248062016
 11
1378.1900523196334
 21
1057.8227917871964
  0
LINE
  8
_0-0_
  6
CONTINUOUS
 62
    1
 10
1382.2078469755418
 20
1057.8227917871964
 11
1382.2078469755418
 21
1057.8227917871964
  0
LINE
  8
_0-0_
  6
CONTINUOUS
 62
    1
 10
1382.2078469755418
 20
1057.8227917871964
 11
1381.6989496475876
 21
1057.492248062016
  0
LINE
  8
_0-0_
  6
CONTINUOUS
 62
    1
 10
1382.2078469755415
 20
1057.8227917871964
 11
1382.2078469755415
 21
1057.8227917871964
  0
LINE
  8
_0-0_
  6
CONTINUOUS
 62
    1
 10
1382.2078469755415
 20
1057.8227917871964
 11
1382.0013649313594
 21
1057.896891042014
  0
LINE
  8
_0-0_
  6
CONTINUOUS
 62
    1
 10
1382.0013649313594
 20
1057.896891042014
 11
1381.7401174108459
 21
1057.961896733608
  0
LINE
  8
_0-0_
  6
CONTINUOUS
 62
    1
 10
1381.7401174108459
 20
1057.961896733608
 11
1381.4320422877145
 21
1058.0158336969334
  0
LINE
  8
_0-0_
  6
CONTINUOUS
 62
    1
 10
1381.4320422877145
 20
1058.0158336969334
 11
1381.0865002686876
 21
1058.0570630846535
  0
LINE
  8
_0-0_
  6
CONTINUOUS
 62
    1
 10
1381.0865002686876
 20
1058.0570630846535
 11
1380.7139904731609
 21
1058.0843321626851
  0
LINE
  8
_0-0_
  6
CONTINUOUS
 62
    1
 10
1380.7139904731609
 20
1058.0843321626851
 11
1380.3258314227724
 21
1058.0968123738912
  0
LINE
  8
_0-0_
  6
CONTINUOUS
 62
    1
 10
1380.3258314227724
 20
1058.0968123738912
 11
1379.9338171338502
 21
1058.0941245133695
  0
LINE
  8
_0-0_
  6
CONTINUOUS
 62
    1
 10
1379.9338171338502
 20
1058.0941245133695
 11
1379.5498587621944
 21
1058.0763502504019
  0
LINE
  8
_0-0_
  6
CONTINUOUS
 62
    1
 10
1379.5498587621944
 20
1058.0763502504019
 11
1379.1856226886355
 21
1058.0440296469746
  0
LINE
  8
_0-0_
  6
CONTINUOUS
 62
    1
 10
1379.1856226886355
 20
1058.0440296469746
 11
1378.852176041956
 21
1057.9981447482674
  0
LINE
  8
_0-0_
  6
CONTINUOUS
 62
    1
 10
1378.852176041956
 20
1057.9981447482674
 11
1378.5596504297835
 21
1057.9400897437088
  0
LINE
  8
_0-0_
  6
CONTINUOUS
 62
    1
 10
1378.5596504297835
 20
1057.9400897437088
 11
1378.3169340948184
 21
1057.8716286052352
  0
LINE
  8
_0-0_
  6
CONTINUOUS
 62
    1
 10
1378.3169340948184
 20
1057.8716286052352
 11
1378.1900523196337
 21
1057.8227917871964
  0
LINE
  8
_0-0_
  6
CONTINUOUS
 62
    1
 10
1383.1989496475876
 20
1055.5976080185403
 11
1383.1989496475876
 21
1001.7307439664312
  0
LINE
  8
_0-0_
  6
DASHED1
 62
    1
 10
1378.6989496475876
 20
1057.4922480620155
 11
1378.6989496475876
 21
990.09032427336865
  0
LINE
  8
_0-0_
  6
DASHED1
 62
    1
 10
1381.6989496475876
 20
1057.4922480620155
 11
1381.6989496475876
 21
990.09032427336865
  0
LINE
  8
_0-0_
  6
CONTINUOUS
 62
    3
 10
1023.925499156113
 20
1056.9922480620155
 11
1523.9254991561129
 21
1056.9922480620155
  0
LINE
  8
_0-0_
  6
CONTINUOUS
 62
  136
 10
1053.0381975283208
 20
1058.9922480620155
 11
1082.209770403575
 21
1058.9922480620155
  0
LINE
  8
_0-0_
  6
DASHED1
 62
    1
 10
1066.3739839659474
 20
1060.9922480620155
 11
1066.3739839659474
 21
990.24224806201551
  0
LINE
  8
_0-0_
  6
CONTINUOUS
 62
    1
 10
1065.7991552068579
 20
1060.9922480620155
 11
1069.448812725037
 21
1060.9922480620155
  0
LINE
  8
_0-0_
  6
CONTINUOUS
 62
    1
 10
1065.7991552068579
 20
1060.9922480620155
 11
1065.7991552068579
 21
1060.9922480620155
  0
LINE
  8
_0-0_
  6
CONTINUOUS
 62
    1
 10
1065.7991552068579
 20
1060.9922480620155
 11
1062.4233741738046
 21
1060.1141820198286
  0
LINE
  8
_0-0_
  6
CONTINUOUS
 62
    1
 10
1062.4233741738046
 20
1060.1141820198286
 11
1060.1239839659474
 21
1058.9922480620155
  0
LINE
  8
_0-0_
  6
CONTINUOUS
 62
    1
 10
1069.1026963968218
 20
1061.1605766815917
 11
1069.1026963968218
 21
1061.1605766815917
  0
LINE
  8
_0-0_
  6
CONTINUOUS
 62
    1
 10
1069.1026963968218
 20
1061.1605766815917
 11
1068.8739839659474
 21
1060.9922480620155
  0
LINE
  8
_0-0_
  6
CONTINUOUS
 62
    1
 10
1066.3739839659474
 20
1060.9922480620155
 11
1066.3739839659474
 21
1060.9922480620155
  0
LINE
  8
_0-0_
  6
CONTINUOUS
 62
    1
 10
1066.3739839659474
 20
1060.9922480620155
 11
1066.1452715350731
 21
1061.1605766815917
  0
LINE
  8
_0-0_
  6
CONTINUOUS
 62
    1
 10
1069.1026963968218
 20
1061.1605766815917
 11
1069.1026963968218
 21
1061.1605766815917
  0
LINE
  8
_0-0_
  6
CONTINUOUS
 62
    1
 10
1069.1026963968218
 20
1061.1605766815917
 11
1068.8463917680394
 21
1061.1901163564924
  0
LINE
  8
_0-0_
  6
CONTINUOUS
 62
    1
 10
1068.8463917680394
 20
1061.1901163564924
 11
1068.5529448967586
 21
1061.2136439033914
  0
LINE
  8
_0-0_
  6
CONTINUOUS
 62
    1
 10
1068.5529448967586
 20
1061.2136439033914
 11
1068.2312720176719
 21
1061.230444449682
  0
LINE
  8
_0-0_
  6
CONTINUOUS
 62
    1
 10
1068.2312720176719
 20
1061.230444449682
 11
1067.8911469984364
 21
1061.2400075192666
  0
LINE
  8
_0-0_
  6
CONTINUOUS
 62
    1
 10
1067.8911469984364
 20
1061.2400075192666
 11
1067.5429043656495
 21
1061.2420425431148
  0
LINE
  8
_0-0_
  6
CONTINUOUS
 62
    1
 10
1067.5429043656495
 20
1061.2420425431148
 11
1067.1971252954895
 21
1061.2364876880572
  0
LINE
  8
_0-0_
  6
CONTINUOUS
 62
    1
 10
1067.1971252954895
 20
1061.2364876880572
 11
1066.8643161100304
 21
1061.2235117355533
  0
LINE
  8
_0-0_
  6
CONTINUOUS
 62
    1
 10
1066.8643161100304
 20
1061.2235117355533
 11
1066.554589047963
 21
1061.2035089533542
  0
LINE
  8
_0-0_
  6
CONTINUOUS
 62
    1
 10
1066.554589047963
 20
1061.2035089533542
 11
1066.2773550093384
 21
1061.1770871158749
  0
LINE
  8
_0-0_
  6
CONTINUOUS
 62
    1
 10
1066.2773550093384
 20
1061.1770871158749
 11
1066.1452715350731
 21
1061.1605766815917
  0
LINE
  8
_0-0_
  6
CONTINUOUS
 62
    1
 10
1065.1239839659474
 20
1058.9651078438176
 11
1065.1239839659474
 21
1058.9922480620155
  0
LINE
  8
_0-0_
  6
CONTINUOUS
 62
    1
 10
1075.1239839659474
 20
1058.9922480620155
 11
1075.1239839659474
 21
1058.9922480620155
  0
LINE
  8
_0-0_
  6
CONTINUOUS
 62
    1
 10
1075.1239839659474
 20
1058.9922480620155
 11
1074.9923621853832
 21
1059.0689403844765
  0
LINE
  8
_0-0_
  6
CONTINUOUS
 62
    1
 10
1074.9923621853832
 20
1059.0689403844765
 11
1074.9923621853832
 21
1059.0689403844765
  0
LINE
  8
_0-0_
  6
CONTINUOUS
 62
    1
 10
1074.9923621853832
 20
1059.0689403844765
 11
1071.7107008926105
 21
1060.5006417628972
  0
LINE
  8
_0-0_
  6
CONTINUOUS
 62
    1
 10
1071.7107008926105
 20
1060.5006417628972
 11
1069.448812725037
 21
1060.9922480620155
  0
LINE
  8
_0-0_
  6
CONTINUOUS
 62
    1
 10
1075.1239839659474
 20
1058.9922480620155
 11
1060.1239839659474
 21
1058.9922480620155
  0
LINE
  8
_0-0_
  6
CONTINUOUS
 62
    1
 10
1070.1239839659474
 20
997.99224806201551
 11
1070.5875144198626
 21
989.14756011194299
  0
LINE
  8
_0-0_
  6
CONTINUOUS
 62
    1
 10
1067.6239839659474
 20
988.99224806201551
 11
1066.9382516597507
 21
989.67798036821227
  0
LINE
  8
_0-0_
  6
CONTINUOUS
 62
    1
 10
1067.6239839659474
 20
988.99224806201551
 11
1068.3097162721447
 21
989.67798036821227
  0
LINE
  8
_0-0_
  6
DASHED1
 62
    1
 10
1066.9382516597507
 20
989.67798036821227
 11
1066.3739839659474
 21
990.24224806201551
  0
LINE
  8
_0-0_
  6
CONTINUOUS
 62
    1
 10
1065.1239839659474
 20
997.99224806201551
 11
1064.6604535120332
 21
989.14756011194299
  0
LINE
  8
_0-0_
  6
CONTINUOUS
 62
    1
 10
1067.3739839659474
 20
997.99224806201551
 11
1066.9042906443219
 21
989.02996559076678
  0
LINE
  8
_0-0_
  6
CONTINUOUS
 62
    1
 10
1067.8739839659474
 20
997.99224806201551
 11
1068.343677287573
 21
989.02996559076678
  0
LINE
  8
_0-0_
  6
DASHED1
 62
    1
 10
1068.3097162721447
 20
989.67798036821227
 11
1068.8739839659474
 21
990.24224806201551
  0
LINE
  8
_0-0_
  6
CONTINUOUS
 62
    1
 10
1070.5875144198626
 20
989.14756011194299
 11
1068.343677287573
 21
989.02996559076678
  0
LINE
  8
_0-0_
  6
CONTINUOUS
 62
    1
 10
1066.9042906443219
 20
989.02996559076678
 11
1064.6604535120332
 21
989.14756011194299
  0
LINE
  8
_0-0_
  6
CONTINUOUS
 62
    1
 10
1067.8739839659474
 20
997.99224806201551
 11
1067.3739839659474
 21
997.99224806201551
  0
LINE
  8
_0-0_
  6
DASHED1
 62
    1
 10
1068.8739839659474
 20
1060.9922480620155
 11
1068.8739839659474
 21
990.24224806201551
  0
LINE
  8
_0-0_
  6
CENTER2
 62
    1
 10
1067.6239839659474
 20
1069.5473384735117
 11
1067.6239839659474
 21
984.46189482865998
  0
LINE
  8
_0-0_
  6
CONTINUOUS
 62
    1
 10
1070.1239839659474
 20
997.99224806201551
 11
1070.1239839659474
 21
1058.9922480620155
  0
LINE
  8
_0-0_
  6
CONTINUOUS
 62
    1
 10
1065.1239839659474
 20
997.99224806201551
 11
1065.1239839659474
 21
1058.9922480620155
  0
LINE
  8
_0-0_
  6
CONTINUOUS
 62
    7
 10
1024.9254991561129
 20
1116.2765193094776
 11
1024.9254991561129
 21
1154.1049464342234
  0
LINE
  8
_0-0_
  6
CONTINUOUS
 62
    7
 10
1024.9254991561129
 20
1154.1049464342234
 11
1023.925499156113
 21
1154.1049464342234
  0
LINE
  8
_0-0_
  6
CONTINUOUS
 62
    1
 10
1385.1989496475876
 20
1015.9922480620155
 11
1375.1989496475876
 21
1015.9922480620155
  0
LINE
  8
_0-0_
  6
CONTINUOUS
 62
    1
 10
1375.1989496475876
 20
1015.9922480620155
 11
1375.1989496475876
 21
1050.9922480620155
  0
LINE
  8
_0-0_
  6
CONTINUOUS
 62
    1
 10
1375.1989496475876
 20
1050.9922480620155
 11
1385.1989496475876
 21
1050.9922480620155
  0
LINE
  8
_0-0_
  6
CONTINUOUS
 62
    1
 10
1385.1989496475876
 20
1050.9922480620155
 11
1385.1989496475876
 21
1015.9922480620155
  0
LINE
  8
_0-0_
  6
CONTINUOUS
 62
    1
 10
1376.1989496475876
 20
1015.9922480620155
 11
1376.1989496475876
 21
1050.9922480620155
  0
LINE
  8
_0-0_
  6
CONTINUOUS
 62
    1
 10
1384.1989496475876
 20
1050.9922480620155
 11
1384.1989496475876
 21
1015.9922480620155
  0
LINE
  8
_0-0_
  6
CONTINUOUS
 62
    1
 10
1072.6239839659474
 20
1015.9922480620155
 11
1062.6239839659474
 21
1015.9922480620155
  0
LINE
  8
_0-0_
  6
CONTINUOUS
 62
    1
 10
1062.6239839659474
 20
1015.9922480620155
 11
1062.6239839659474
 21
1050.9922480620155
  0
LINE
  8
_0-0_
  6
CONTINUOUS
 62
    1
 10
1062.6239839659474
 20
1050.9922480620155
 11
1072.6239839659474
 21
1050.9922480620155
  0
LINE
  8
_0-0_
  6
CONTINUOUS
 62
    1
 10
1072.6239839659474
 20
1050.9922480620155
 11
1072.6239839659474
 21
1015.9922480620155
  0
LINE
  8
_0-0_
  6
CONTINUOUS
 62
    1
 10
1063.6239839659474
 20
1015.9922480620155
 11
1063.6239839659474
 21
1050.9922480620155
  0
LINE
  8
_0-0_
  6
CONTINUOUS
 62
    1
 10
1071.6239839659474
 20
1050.9922480620155
 11
1071.6239839659474
 21
1015.9922480620155
  0
LINE
  8
_0-0_
  6
CONTINUOUS
 62
    7
 10
1023.925499156113
 20
1015.9922480620155
 11
1523.9254991561129
 21
1015.9922480620155
  0
CIRCLE
  8
_0-0_
  6
DASHED2
 62
    1
 10
1052.209770403575
 20
1056.9922480620155
 40
80
  0
TEXT
  8
_0-0_
 62
    7
 10
1038.6591734778995
 20
1124.8581799431552
 40
24
 41
1
 50
0
  1
Ｂ
  0
LINE
  8
_0-0_
  6
CONTINUOUS
 62
    4
 10
1029.9254991561129
 20
1195.9922480620155
 11
1029.9254991561129
 21
1119.7765193094776
  0
LINE
  8
_0-0_
  6
CONTINUOUS
 62
    7
 10
1023.925499156113
 20
1015.9922480620155
 11
1023.925499156113
 21
1195.9922480620155
  0
CIRCLE
  8
_0-0_
  6
DASHED2
 62
    1
 10
1029.9254991561129
 20
1195.9922480620155
 40
40
  0
TEXT
  8
_0-0_
 62
    7
 10
1017.5238542592297
 20
1223.6164846176791
 40
24
 41
1
 50
0
  1
Ａ
  0
LINE
  8
_0-0_
  6
CONTINUOUS
 62
    4
 10
1284.6285039851919
 20
544.24125747208677
 11
1284.6285039851919
 21
483.92789006723547
  0
LINE
  8
_0-0_
  6
CONTINUOUS
 62
    7
 10
1404.5181142919814
 20
344.91327976044545
 11
1489.6320753226596
 21
344.91327976044545
  0
LINE
  8
_0-0_
  6
CONTINUOUS
 62
  136
 10
1275.6285039851919
 20
408.16685109791365
 11
1336.6320753226596
 21
347.16327976044545
  0
LINE
  8
_0-0_
  6
CONTINUOUS
 62
    6
 10
1271.1285039851905
 20
312.22822570443191
 11
1288.0635580412059
 21
329.16327976044727
  0
LINE
  8
_0-0_
  6
CONTINUOUS
 62
    6
 10
1271.1285039851905
 20
280.40842055103735
 11
1319.8833631946004
 21
329.16327976044727
  0
LINE
  8
_0-0_
  6
CONTINUOUS
 62
    6
 10
1272.9531683479913
 20
250.41327976044454
 11
1351.7031683479913
 21
329.16327976044454
  0
LINE
  8
_0-0_
  6
CONTINUOUS
 62
    6
 10
1304.7729735013904
 20
250.41327976044727
 11
1383.5229735013904
 21
329.16327976044727
  0
LINE
  8
_0-0_
  6
CONTINUOUS
 62
    6
 10
1336.5927786547841
 20
250.41327976044727
 11
1415.3427786547841
 21
329.16327976044727
  0
LINE
  8
_0-0_
  6
CONTINUOUS
 62
    6
 10
1368.4125838081759
 20
250.41327976044545
 11
1447.162583808175
 21
329.16327976044454
  0
LINE
  8
_0-0_
  6
CONTINUOUS
 62
    6
 10
1400.2323889615741
 20
250.41327976044727
 11
1478.9823889615741
 21
329.16327976044727
  0
LINE
  8
_0-0_
  6
CONTINUOUS
 62
    6
 10
1432.0521941149677
 20
250.41327976044727
 11
1510.8021941149677
 21
329.16327976044727
  0
LINE
  8
_0-0_
  6
CONTINUOUS
 62
    6
 10
1463.8719992683596
 20
250.41327976044454
 11
1542.6219992683596
 21
329.16327976044545
  0
LINE
  8
_0-0_
  6
CONTINUOUS
 62
    6
 10
1480.2300914393904
 20
329.16327976044454
 11
1558.9800914393904
 21
250.41327976044454
  0
LINE
  8
_0-0_
  6
CONTINUOUS
 62
    6
 10
1448.4102862859922
 20
329.16327976044727
 11
1527.1602862859922
 21
250.41327976044727
  0
LINE
  8
_0-0_
  6
CONTINUOUS
 62
    6
 10
1416.5904811326004
 20
329.16327976044363
 11
1495.3404811325995
 21
250.41327976044363
  0
LINE
  8
_0-0_
  6
CONTINUOUS
 62
    6
 10
1384.7706759792068
 20
329.16327976044454
 11
1463.5206759792059
 21
250.41327976044727
  0
LINE
  8
_0-0_
  6
CONTINUOUS
 62
    6
 10
1352.9508708258086
 20
329.16327976044727
 11
1431.7008708258086
 21
250.41327976044727
  0
LINE
  8
_0-0_
  6
CONTINUOUS
 62
    6
 10
1321.1310656724168
 20
329.16327976044363
 11
1399.8810656724168
 21
250.41327976044363
  0
LINE
  8
_0-0_
  6
CONTINUOUS
 62
    6
 10
1289.3112605190231
 20
329.16327976044454
 11
1368.0612605190231
 21
250.41327976044454
  0
LINE
  8
_0-0_
  6
CONTINUOUS
 62
    6
 10
1271.1285039851932
 20
315.52623114087896
 11
1336.2414553656249
 21
250.41327976044727
  0
LINE
  8
_0-0_
  6
CONTINUOUS
 62
    6
 10
1271.1285039851905
 20
283.70642598748623
 11
1304.4216502122313
 21
250.41327976044454
  0
LINE
  8
_0-0_
  6
CONTINUOUS
 62
    6
 10
1271.1285039851919
 20
251.88662083408803
 11
1272.6018450588344
 21
250.41327976044545
  0
LINE
  8
_0-0_
  6
CONTINUOUS
 62
    6
 10
1271.1285039851919
 20
329.16327976044545
 11
1271.1285039851919
 21
250.41327976044545
  0
LINE
  8
_0-0_
  6
CONTINUOUS
 62
    1
 10
1217.1285039851919
 20
440.98487058257456
 11
1218.6714016741348
 21
442.52776827151797
  0
LINE
  8
_0-0_
  6
CONTINUOUS
 62
    1
 10
1217.1285039851919
 20
440.98487058257456
 11
1218.6714016741348
 21
439.44197289363115
  0
LINE
  8
_0-0_
  6
DASHED1
 62
    1
 10
1218.6714016741348
 20
442.52776827151797
 11
1219.9410039851919
 21
443.79737058257456
  0
LINE
  8
_0-0_
  6
DASHED1
 62
    1
 10
1218.6714016741348
 20
439.44197289363115
 11
1219.9410039851919
 21
438.17237058257456
  0
LINE
  8
_0-0_
  6
CONTINUOUS
 62
    1
 10
1217.4779560975289
 20
434.31692706126637
 11
1217.2133684248824
 21
439.36556060891712
  0
LINE
  8
_0-0_
  6
CONTINUOUS
 62
    1
 10
1217.2133684248824
 20
442.604180556232
 11
1217.4779560975289
 21
447.65281410388275
  0
LINE
  8
_0-0_
  6
CONTINUOUS
 62
    4
 10
1390.9543375059702
 20
367.41327976044545
 11
1407.8931142919814
 21
367.41327976044545
  0
LINE
  8
_0-0_
  6
CONTINUOUS
 62
    7
 10
1489.6320753226596
 20
344.91327976044545
 11
1489.6320753226596
 21
342.66327976044545
  0
LINE
  8
_0-0_
  6
CONTINUOUS
 62
    7
 10
1336.6320753226596
 20
347.16327976044545
 11
1336.6320753226596
 21
349.41327976044545
  0
LINE
  8
_0-0_
  6
CONTINUOUS
 62
    7
 10
1273.3785039851919
 20
476.05289006723547
 11
1277.8785039851919
 21
476.05289006723547
  0
LINE
  8
_0-0_
  6
CONTINUOUS
 62
    7
 10
1275.6285039851919
 20
408.16685109791365
 11
1277.8785039851919
 21
408.16685109791365
  0
LINE
  8
_0-0_
  6
CONTINUOUS
 62
    1
 10
1237.3785039851919
 20
435.35987058257456
 11
1217.4779560975289
 21
434.31692706126637
  0
LINE
  8
_0-0_
  6
CONTINUOUS
 62
    1
 10
1275.6285039851919
 20
435.35987058257456
 11
1275.6285039851919
 21
424.10987058257456
  0
LINE
  8
_0-0_
  6
CONTINUOUS
 62
    1
 10
1275.6285039851919
 20
446.60987058257456
 11
1275.6285039851919
 21
457.85987058257456
  0
LINE
  8
_0-0_
  6
CONTINUOUS
 62
    1
 10
1280.1285039851919
 20
445.09073529052625
 11
1280.1285039851919
 21
436.87900587462286
  0
LINE
  8
_0-0_
  6
CONTINUOUS
 62
    1
 10
1280.1285039851919
 20
445.09073529052603
 11
1280.1285039851919
 21
445.09073529052603
  0
LINE
  8
_0-0_
  6
CONTINUOUS
 62
    1
 10
1280.1285039851919
 20
445.09073529052603
 11
1278.1528553902713
 21
452.68624261489595
  0
LINE
  8
_0-0_
  6
CONTINUOUS
 62
    1
 10
1278.1528553902713
 20
452.68624261489595
 11
1275.6285039851919
 21
457.85987058257456
  0
LINE
  8
_0-0_
  6
CONTINUOUS
 62
    1
 10
1275.6285039851919
 20
424.10987058257456
 11
1275.6285039851919
 21
424.10987058257456
  0
LINE
  8
_0-0_
  6
CONTINUOUS
 62
    1
 10
1275.6285039851919
 20
424.10987058257456
 11
1278.9259189623053
 21
431.47713262595431
  0
LINE
  8
_0-0_
  6
CONTINUOUS
 62
    1
 10
1278.9259189623053
 20
431.47713262595431
 11
1280.1285039851919
 21
436.87900587462309
  0
LINE
  8
_0-0_
  6
CONTINUOUS
 62
    1
 10
1280.5072433792382
 20
437.65776761310752
 11
1280.5072433792382
 21
437.65776761310752
  0
LINE
  8
_0-0_
  6
CONTINUOUS
 62
    1
 10
1280.5072433792382
 20
437.65776761310752
 11
1280.1285039851919
 21
438.17237058257456
  0
LINE
  8
_0-0_
  6
CONTINUOUS
 62
    1
 10
1280.1285039851919
 20
443.79737058257456
 11
1280.1285039851919
 21
443.79737058257456
  0
LINE
  8
_0-0_
  6
CONTINUOUS
 62
    1
 10
1280.1285039851919
 20
443.79737058257456
 11
1280.5072433792382
 21
444.31197355204159
  0
LINE
  8
_0-0_
  6
CONTINUOUS
 62
    1
 10
1280.5072433792382
 20
437.65776761310735
 11
1280.5072433792382
 21
437.65776761310735
  0
LINE
  8
_0-0_
  6
CONTINUOUS
 62
    1
 10
1280.5072433792382
 20
437.65776761310735
 11
1280.5737076477646
 21
438.2344530278678
  0
LINE
  8
_0-0_
  6
CONTINUOUS
 62
    1
 10
1280.5737076477646
 20
438.2344530278678
 11
1280.6266446282875
 21
438.89470848824959
  0
LINE
  8
_0-0_
  6
CONTINUOUS
 62
    1
 10
1280.6266446282875
 20
438.89470848824959
 11
1280.6644458574415
 21
439.61847246619436
  0
LINE
  8
_0-0_
  6
CONTINUOUS
 62
    1
 10
1280.6644458574415
 20
439.61847246619436
 11
1280.6859627640069
 21
440.38375375947459
  0
LINE
  8
_0-0_
  6
CONTINUOUS
 62
    1
 10
1280.6859627640069
 20
440.38375375947459
 11
1280.6905415676656
 21
441.16729968324489
  0
LINE
  8
_0-0_
  6
CONTINUOUS
 62
    1
 10
1280.6905415676656
 20
441.16729968324489
 11
1280.6780431437855
 21
441.94530259110491
  0
LINE
  8
_0-0_
  6
CONTINUOUS
 62
    1
 10
1280.6780431437855
 20
441.94530259110491
 11
1280.6488472506521
 21
442.69412325838778
  0
LINE
  8
_0-0_
  6
CONTINUOUS
 62
    1
 10
1280.6488472506521
 20
442.69412325838778
 11
1280.6038409907039
 21
443.39100914803964
  0
LINE
  8
_0-0_
  6
CONTINUOUS
 62
    1
 10
1280.6038409907039
 20
443.39100914803964
 11
1280.5443918563753
 21
444.01478573494472
  0
LINE
  8
_0-0_
  6
CONTINUOUS
 62
    1
 10
1280.5443918563753
 20
444.01478573494472
 11
1280.5072433792382
 21
444.31197355204159
  0
LINE
  8
_0-0_
  6
DASHED1
 62
    1
 10
1280.1285039851919
 20
443.79737058257456
 11
1219.9410039851919
 21
443.79737058257456
  0
LINE
  8
_0-0_
  6
DASHED1
 62
    1
 10
1280.1285039851919
 20
438.17237058257456
 11
1219.9410039851919
 21
438.17237058257456
  0
LINE
  8
_0-0_
  6
CONTINUOUS
 62
    1
 10
1237.3785039851919
 20
446.60987058257456
 11
1275.6285039851919
 21
446.60987058257456
  0
LINE
  8
_0-0_
  6
CONTINUOUS
 62
    1
 10
1237.3785039851919
 20
446.60987058257456
 11
1217.4779560975289
 21
447.65281410388275
  0
LINE
  8
_0-0_
  6
CONTINUOUS
 62
    1
 10
1237.3785039851919
 20
441.54737058257456
 11
1217.2133684248824
 21
442.604180556232
  0
LINE
  8
_0-0_
  6
CONTINUOUS
 62
    1
 10
1237.3785039851919
 20
435.35987058257456
 11
1275.6285039851919
 21
435.35987058257456
  0
LINE
  8
_0-0_
  6
CONTINUOUS
 62
    1
 10
1237.3785039851919
 20
440.42237058257456
 11
1217.2133684248824
 21
439.36556060891712
  0
LINE
  8
_0-0_
  6
CONTINUOUS
 62
    1
 10
1237.3785039851919
 20
440.42237058257456
 11
1237.3785039851919
 21
441.54737058257456
  0
LINE
  8
_0-0_
  6
CONTINUOUS
 62
    7
 10
1277.8785039851919
 20
408.16685109791365
 11
1277.8785039851919
 21
423.54800401686521
  0
LINE
  8
_0-0_
  6
CONTINUOUS
 62
    7
 10
1277.8785039851919
 20
458.42173714828391
 11
1277.8785039851919
 21
476.05289006723547
  0
LINE
  8
_0-0_
  6
CONTINUOUS
 62
    7
 10
1277.8785039851919
 20
423.54800401686543
 11
1277.8785039851919
 21
423.54800401686543
  0
LINE
  8
_0-0_
  6
CONTINUOUS
 62
    7
 10
1277.8785039851919
 20
423.54800401686543
 11
1281.2183827859935
 21
431.30597306441825
  0
LINE
  8
_0-0_
  6
CONTINUOUS
 62
    7
 10
1281.2183827859935
 20
431.30597306441825
 11
1282.6109230504765
 21
439.35803051530183
  0
LINE
  8
_0-0_
  6
CONTINUOUS
 62
    7
 10
1282.6109230504765
 20
439.35803051530183
 11
1282.0138131473636
 21
447.4595186784087
  0
LINE
  8
_0-0_
  6
CONTINUOUS
 62
    7
 10
1282.0138131473636
 20
447.4595186784087
 11
1279.4451959589089
 21
455.36427793545363
  0
LINE
  8
_0-0_
  6
CONTINUOUS
 62
    7
 10
1279.4451959589089
 20
455.36427793545363
 11
1277.8785039851919
 21
458.42173714828368
  0
LINE
  8
_0-0_
  6
CENTER2
 62
    1
 10
1292.4815164564602
 20
440.98487058257456
 11
1207.4831489784615
 21
440.98487058257456
  0
LINE
  8
_0-0_
  6
CONTINUOUS
 62
    4
 10
1289.1285039851919
 20
413.75873418995184
 11
1289.1285039851919
 21
420.9269856052299
  0
LINE
  8
_0-0_
  6
CONTINUOUS
 62
    4
 10
1289.1285039851919
 20
420.92698560523041
 11
1289.1285039851919
 21
420.92698560523041
  0
LINE
  8
_0-0_
  6
CONTINUOUS
 62
    4
 10
1289.1285039851919
 20
420.92698560523041
 11
1292.6616963376318
 21
430.64313503018741
  0
LINE
  8
_0-0_
  6
CONTINUOUS
 62
    4
 10
1292.6616963376318
 20
430.64313503018741
 11
1293.8998508620823
 21
440.673512856733
  0
LINE
  8
_0-0_
  6
CONTINUOUS
 62
    4
 10
1293.8998508620823
 20
440.673512856733
 11
1292.8053468598544
 21
450.71335113022371
  0
LINE
  8
_0-0_
  6
CONTINUOUS
 62
    4
 10
1292.8053468598544
 20
450.71335113022371
 11
1289.4114402812102
 21
460.45759444512277
  0
LINE
  8
_0-0_
  6
CONTINUOUS
 62
    4
 10
1289.4114402812102
 20
460.45759444512277
 11
1289.1285039851919
 21
461.0427555599187
  0
LINE
  8
_0-0_
  6
CONTINUOUS
 62
    4
 10
1289.1285039851919
 20
461.0427555599174
 11
1289.1285039851919
 21
479.42789006723547
  0
LINE
  8
_0-0_
  6
CONTINUOUS
 62
    4
 10
1289.1285039851919
 20
479.42789006723547
 11
1284.6285039851919
 21
483.92789006723547
  0
LINE
  8
_0-0_
  6
CONTINUOUS
 62
    7
 10
1404.5181142919814
 20
344.91327976044545
 11
1404.5181142919814
 21
349.41327976044545
  0
LINE
  8
_0-0_
  6
CONTINUOUS
 62
    7
 10
1336.6320753226596
 20
349.41327976044545
 11
1352.0132282416102
 21
349.41327976044545
  0
LINE
  8
_0-0_
  6
CONTINUOUS
 62
    7
 10
1386.8869613730308
 20
349.41327976044545
 11
1404.5181142919814
 21
349.41327976044545
  0
LINE
  8
_0-0_
  6
CONTINUOUS
 62
    7
 10
1386.8869613730287
 20
349.41327976044545
 11
1386.8869613730287
 21
349.41327976044545
  0
LINE
  8
_0-0_
  6
CONTINUOUS
 62
    7
 10
1386.8869613730287
 20
349.41327976044545
 11
1379.1289923254758
 21
352.75315856124723
  0
LINE
  8
_0-0_
  6
CONTINUOUS
 62
    7
 10
1379.1289923254758
 20
352.75315856124723
 11
1371.0769348745923
 21
354.14569882573016
  0
LINE
  8
_0-0_
  6
CONTINUOUS
 62
    7
 10
1371.0769348745923
 20
354.14569882573016
 11
1362.9754467114856
 21
353.54858892261723
  0
LINE
  8
_0-0_
  6
CONTINUOUS
 62
    7
 10
1362.9754467114856
 20
353.54858892261723
 11
1355.0706874544405
 21
350.97997173416246
  0
LINE
  8
_0-0_
  6
CONTINUOUS
 62
    7
 10
1355.0706874544405
 20
350.97997173416246
 11
1352.0132282416105
 21
349.41327976044545
  0
LINE
  8
_0-0_
  6
CONTINUOUS
 62
    4
 10
1289.1285039851919
 20
413.75873418995184
 11
1335.4739584146978
 21
367.41327976044545
  0
LINE
  8
_0-0_
  6
CONTINUOUS
 62
    4
 10
1335.4739584146978
 20
367.41327976044545
 11
1347.9458521086713
 21
367.41327976044545
  0
LINE
  8
_0-0_
  6
CONTINUOUS
 62
    4
 10
1390.9543375059695
 20
367.41327976044545
 11
1390.9543375059695
 21
367.41327976044545
  0
LINE
  8
_0-0_
  6
CONTINUOUS
 62
    4
 10
1390.9543375059695
 20
367.41327976044545
 11
1380.0606488214803
 21
371.04930105383596
  0
LINE
  8
_0-0_
  6
CONTINUOUS
 62
    4
 10
1380.0606488214803
 20
371.04930105383596
 11
1368.84456382247
 21
372.18206477956505
  0
LINE
  8
_0-0_
  6
CONTINUOUS
 62
    4
 10
1368.84456382247
 20
372.18206477956505
 11
1357.6468775760211
 21
370.77715248503267
  0
LINE
  8
_0-0_
  6
CONTINUOUS
 62
    4
 10
1357.6468775760211
 20
370.77715248503267
 11
1347.9458521086697
 21
367.41327976044545
  0
LINE
  8
_0-0_
  6
CONTINUOUS
 62
    4
 10
1407.8931142919814
 20
367.41327976044545
 11
1412.3931142919814
 21
362.91327976044545
  0
LINE
  8
_0-0_
  6
CONTINUOUS
 62
  136
 10
1271.1285039851919
 20
406.30289006723547
 11
1334.7681142919814
 21
342.66327976044545
  0
LINE
  8
_0-0_
  6
CONTINUOUS
 62
  136
 10
1334.7681142919814
 20
342.66327976044545
 11
1402.2681142919814
 21
342.66327976044545
  0
LINE
  8
_0-0_
  6
CONTINUOUS
 62
  136
 10
1402.2681142919814
 20
342.66327976044545
 11
1402.2681142919814
 21
347.16327976044545
  0
LINE
  8
_0-0_
  6
CONTINUOUS
 62
  136
 10
1271.1285039851919
 20
473.80289006723547
 11
1271.1285039851919
 21
406.30289006723547
  0
LINE
  8
_0-0_
  6
CONTINUOUS
 62
  136
 10
1271.1285039851919
 20
473.80289006723547
 11
1275.6285039851919
 21
473.80289006723547
  0
LINE
  8
_0-0_
  6
CONTINUOUS
 62
  136
 10
1275.6285039851919
 20
473.80289006723547
 11
1275.6285039851919
 21
408.16685109791365
  0
LINE
  8
_0-0_
  6
CONTINUOUS
 62
  136
 10
1336.6320753226596
 20
347.16327976044545
 11
1402.2681142919814
 21
347.16327976044545
  0
LINE
  8
_0-0_
  6
DASHED1
 62
    1
 10
1366.6375948073196
 20
351.66327976044545
 11
1366.6375948073196
 21
192.47577976044545
  0
LINE
  8
_0-0_
  6
CONTINUOUS
 62
    1
 10
1365.3442300993679
 20
351.66327976044545
 11
1373.5559595152713
 21
351.66327976044545
  0
LINE
  8
_0-0_
  6
CONTINUOUS
 62
    1
 10
1365.3442300993681
 20
351.66327976044545
 11
1365.3442300993681
 21
351.66327976044545
  0
LINE
  8
_0-0_
  6
CONTINUOUS
 62
    1
 10
1365.3442300993681
 20
351.66327976044545
 11
1357.7487227749982
 21
349.68763116552492
  0
LINE
  8
_0-0_
  6
CONTINUOUS
 62
    1
 10
1357.7487227749982
 20
349.68763116552492
 11
1352.5750948073196
 21
347.16327976044545
  0
LINE
  8
_0-0_
  6
CONTINUOUS
 62
    1
 10
1372.7771977767866
 20
352.0420191544917
 11
1372.7771977767866
 21
352.0420191544917
  0
LINE
  8
_0-0_
  6
CONTINUOUS
 62
    1
 10
1372.7771977767866
 20
352.0420191544917
 11
1372.2625948073196
 21
351.66327976044545
  0
LINE
  8
_0-0_
  6
CONTINUOUS
 62
    1
 10
1366.6375948073196
 20
351.66327976044545
 11
1366.6375948073196
 21
351.66327976044545
  0
LINE
  8
_0-0_
  6
CONTINUOUS
 62
    1
 10
1366.6375948073196
 20
351.66327976044545
 11
1366.1229918378526
 21
352.0420191544917
  0
LINE
  8
_0-0_
  6
CONTINUOUS
 62
    1
 10
1372.7771977767868
 20
352.0420191544917
 11
1372.7771977767868
 21
352.0420191544917
  0
LINE
  8
_0-0_
  6
CONTINUOUS
 62
    1
 10
1372.7771977767868
 20
352.0420191544917
 11
1372.2005123620263
 21
352.10848342301813
  0
LINE
  8
_0-0_
  6
CONTINUOUS
 62
    1
 10
1372.2005123620263
 20
352.10848342301813
 11
1371.5402569016446
 21
352.16142040354123
  0
LINE
  8
_0-0_
  6
CONTINUOUS
 62
    1
 10
1371.5402569016446
 20
352.16142040354123
 11
1370.8164929236998
 21
352.19922163269513
  0
LINE
  8
_0-0_
  6
CONTINUOUS
 62
    1
 10
1370.8164929236998
 20
352.19922163269513
 11
1370.0512116304196
 21
352.22073853926042
  0
LINE
  8
_0-0_
  6
CONTINUOUS
 62
    1
 10
1370.0512116304196
 20
352.22073853926042
 11
1369.2676657066493
 21
352.2253173429192
  0
LINE
  8
_0-0_
  6
CONTINUOUS
 62
    1
 10
1369.2676657066493
 20
352.2253173429192
 11
1368.4896627987891
 21
352.21281891903925
  0
LINE
  8
_0-0_
  6
CONTINUOUS
 62
    1
 10
1368.4896627987891
 20
352.21281891903925
 11
1367.7408421315063
 21
352.18362302590566
  0
LINE
  8
_0-0_
  6
CONTINUOUS
 62
    1
 10
1367.7408421315063
 20
352.18362302590566
 11
1367.0439562418544
 21
352.13861676595741
  0
LINE
  8
_0-0_
  6
CONTINUOUS
 62
    1
 10
1367.0439562418544
 20
352.13861676595741
 11
1366.4201796549494
 21
352.07916763162888
  0
LINE
  8
_0-0_
  6
CONTINUOUS
 62
    1
 10
1366.4201796549494
 20
352.07916763162888
 11
1366.1229918378526
 21
352.04201915449175
  0
LINE
  8
_0-0_
  6
CONTINUOUS
 62
    1
 10
1363.8250948073196
 20
347.10221426949943
 11
1363.8250948073196
 21
347.16327976044545
  0
LINE
  8
_0-0_
  6
CONTINUOUS
 62
    1
 10
1386.3250948073196
 20
347.16327976044545
 11
1386.3250948073196
 21
347.16327976044545
  0
LINE
  8
_0-0_
  6
CONTINUOUS
 62
    1
 10
1386.3250948073196
 20
347.16327976044545
 11
1386.02894580105
 21
347.33583748598272
  0
LINE
  8
_0-0_
  6
CONTINUOUS
 62
    1
 10
1386.02894580105
 20
347.33583748598272
 11
1386.02894580105
 21
347.33583748598272
  0
LINE
  8
_0-0_
  6
CONTINUOUS
 62
    1
 10
1386.02894580105
 20
347.33583748598272
 11
1378.6452078923112
 21
350.55716558742921
  0
LINE
  8
_0-0_
  6
CONTINUOUS
 62
    1
 10
1378.6452078923112
 20
350.55716558742921
 11
1373.5559595152711
 21
351.66327976044545
  0
LINE
  8
_0-0_
  6
CONTINUOUS
 62
    1
 10
1386.3250948073196
 20
347.16327976044545
 11
1352.5750948073196
 21
347.16327976044545
  0
LINE
  8
_0-0_
  6
CONTINUOUS
 62
    1
 10
1375.0750948073196
 20
209.91327976044545
 11
1376.1180383286287
 21
190.01273187278298
  0
LINE
  8
_0-0_
  6
CONTINUOUS
 62
    1
 10
1369.4500948073196
 20
189.66327976044545
 11
1367.9071971183771
 21
191.20617744938886
  0
LINE
  8
_0-0_
  6
CONTINUOUS
 62
    1
 10
1369.4500948073196
 20
189.66327976044545
 11
1370.992992496263
 21
191.20617744938886
  0
LINE
  8
_0-0_
  6
DASHED1
 62
    1
 10
1367.9071971183771
 20
191.20617744938886
 11
1366.6375948073196
 21
192.47577976044545
  0
LINE
  8
_0-0_
  6
CONTINUOUS
 62
    1
 10
1363.8250948073196
 20
209.91327976044545
 11
1362.7821512860123
 21
190.01273187278298
  0
LINE
  8
_0-0_
  6
CONTINUOUS
 62
    1
 10
1368.8875948073196
 20
209.91327976044545
 11
1367.8307848336622
 21
189.74814420013558
  0
LINE
  8
_0-0_
  6
CONTINUOUS
 62
    1
 10
1370.0125948073196
 20
209.91327976044545
 11
1371.069404780977
 21
189.74814420013558
  0
LINE
  8
_0-0_
  6
DASHED1
 62
    1
 10
1370.992992496263
 20
191.20617744938886
 11
1372.2625948073196
 21
192.47577976044545
  0
LINE
  8
_0-0_
  6
CONTINUOUS
 62
    1
 10
1376.1180383286287
 20
190.01273187278298
 11
1371.069404780977
 21
189.74814420013558
  0
LINE
  8
_0-0_
  6
CONTINUOUS
 62
    1
 10
1367.8307848336622
 20
189.74814420013558
 11
1362.7821512860123
 21
190.01273187278298
  0
LINE
  8
_0-0_
  6
CONTINUOUS
 62
    1
 10
1370.0125948073196
 20
209.91327976044545
 11
1368.8875948073196
 21
209.91327976044545
  0
LINE
  8
_0-0_
  6
DASHED1
 62
    1
 10
1372.2625948073196
 20
351.66327976044545
 11
1372.2625948073196
 21
192.47577976044545
  0
LINE
  8
_0-0_
  6
CENTER2
 62
    1
 10
1369.4500948073196
 20
370.91223318631114
 11
1369.4500948073196
 21
179.46998498539529
  0
LINE
  8
_0-0_
  6
CONTINUOUS
 62
    1
 10
1375.0750948073196
 20
209.91327976044545
 11
1375.0750948073196
 21
347.16327976044545
  0
LINE
  8
_0-0_
  6
CONTINUOUS
 62
    1
 10
1363.8250948073196
 20
209.91327976044545
 11
1363.8250948073196
 21
347.16327976044545
  0
LINE
  8
_0-0_
  6
CONTINUOUS
 62
    1
 10
1380.7000948073196
 20
250.41327976044545
 11
1358.2000948073196
 21
250.41327976044545
  0
LINE
  8
_0-0_
  6
CONTINUOUS
 62
    1
 10
1358.2000948073196
 20
250.41327976044545
 11
1358.2000948073196
 21
329.16327976044545
  0
LINE
  8
_0-0_
  6
CONTINUOUS
 62
    1
 10
1358.2000948073196
 20
329.16327976044545
 11
1380.7000948073196
 21
329.16327976044545
  0
LINE
  8
_0-0_
  6
CONTINUOUS
 62
    1
 10
1380.7000948073196
 20
329.16327976044545
 11
1380.7000948073196
 21
250.41327976044545
  0
LINE
  8
_0-0_
  6
CONTINUOUS
 62
    1
 10
1360.4500948073196
 20
250.41327976044545
 11
1360.4500948073196
 21
329.16327976044545
  0
LINE
  8
_0-0_
  6
CONTINUOUS
 62
    1
 10
1378.4500948073196
 20
329.16327976044545
 11
1378.4500948073196
 21
250.41327976044545
  0
LINE
  8
_0-0_
  6
CONTINUOUS
 62
    7
 10
1273.3785039851919
 20
476.05289006723547
 11
1273.3785039851919
 21
544.24125747208677
  0
LINE
  8
_0-0_
  6
CONTINUOUS
 62
    7
 10
1271.1285039851919
 20
250.41327976044545
 11
1271.1285039851919
 21
544.24125747208677
  0
LINE
  8
_0-0_
  6
CONTINUOUS
 62
    4
 10
1412.3931142919814
 20
362.91327976044545
 11
1558.9800914393895
 21
362.91327976044545
  0
LINE
  8
_0-0_
  6
CONTINUOUS
 62
    3
 10
1271.1285039851919
 20
342.66327976044545
 11
1558.9800914393895
 21
342.66327976044545
  0
LINE
  8
_0-0_
  6
CONTINUOUS
 62
    6
 10
1558.9800914393895
 20
329.16327976044545
 11
1271.1285039851919
 21
329.16327976044545
  0
LINE
  8
_0-0_
  6
CONTINUOUS
 62
    6
 10
1271.1285039851919
 20
250.41327976044545
 11
1558.9800914393904
 21
250.41327976044545
  0
LINE
  8
_0-0_
  6
CONTINUOUS
 62
    6
 10
1495.6918044217568
 20
250.41327976044545
 11
1558.9800914393895
 21
313.70156677807904
  0
LINE
  8
_0-0_
  6
CONTINUOUS
 62
    6
 10
1543.8697017461759
 20
329.16327976044727
 11
1558.9800914393895
 21
314.05289006723365
  0
LINE
  8
_0-0_
  6
CONTINUOUS
 62
    6
 10
1527.5116095751514
 20
250.41327976044727
 11
1558.9800914393895
 21
281.8817616246854
  0
LINE
  8
_0-0_
  6
CONTINUOUS
 62
    6
 10
1512.0498965927841
 20
329.16327976044363
 11
1558.9800914393895
 21
282.23308491383727
  0
LINE
  8
_0-0_
  6
CONTINUOUS
 62
    7
 10
1271.1285039851919
 20
250.41327976044545
 11
1558.9800914393904
 21
250.41327976044545
  0
LINE
  8
_0-0_
  6
CONTINUOUS
 62
    7
 10
1383.2038216829069
 20
179.46998498539529
 11
1454.1471164579566
 21
250.41327976044545
  0
LINE
  8
_0-0_
  6
CONTINUOUS
 62
    7
 10
1399.1137242596042
 20
179.46998498539529
 11
1470.0570190346548
 21
250.41327976044545
  0
LINE
  8
_0-0_
  6
CONTINUOUS
 62
    7
 10
1415.0236268363014
 20
179.46998498539529
 11
1485.9669216113521
 21
250.41327976044545
  0
LINE
  8
_0-0_
  6
CONTINUOUS
 62
    7
 10
1207.4831489784615
 20
528.77609731196139
 11
1222.9483091385869
 21
544.24125747208677
  0
LINE
  8
_0-0_
  6
CONTINUOUS
 62
    7
 10
1207.4831489784615
 20
512.86619473526412
 11
1238.8582117152841
 21
544.24125747208677
  0
LINE
  8
_0-0_
  6
CONTINUOUS
 62
    7
 10
1207.4831489784615
 20
496.95629215856684
 11
1254.7681142919814
 21
544.24125747208677
  0
LINE
  8
_0-0_
  6
CONTINUOUS
 62
    7
 10
1369.280546155785
 20
349.41800387448279
 11
1440.1033490424284
 21
472.08669680858407
  0
POINT
  8
_0-0_
 62
    7
 10
1369.280546155785
 20
349.41800387448279
  0
TEXT
  8
_0-0_
 62
    7
 10
1442.2738601444403
 20
464.642398203124
 40
21.617968000000001
 41
1
 50
0
  1
ｱﾙﾐｻｽｱﾝｶｰ
  0
LINE
  8
_0-0_
  6
CONTINUOUS
 62
    7
 10
1284.6285039851919
 20
483.92789006723547
 11
1312.7882294680651
 21
532.70196533076455
  0
POINT
  8
_0-0_
 62
    7
 10
1284.6285039851919
 20
483.92789006723547
  0
LINE
  8
_0-0_
  6
CONTINUOUS
 62
    7
 10
1289.1285039851919
 20
461.04275555991921
 11
1312.0241767288387
 21
500.69922402538509
  0
POINT
  8
_0-0_
 62
    7
 10
1289.1285039851919
 20
461.04275555991921
  0
TEXT
  8
_0-0_
 62
    7
 10
1314.7856749821308
 20
490.41657305078593
 40
21.617968000000001
 41
1
 50
0
  1
ｳﾚﾀﾝ防水
  0
TEXT
  8
_0-0_
 62
    7
 10
1313.0251558823797
 20
524.74669549592841
 40
21.617968000000001
 41
1
 50
0
  1
ﾄｯﾌﾟｺｰﾄ
  0
LINE
  8
_0-0_
  6
CONTINUOUS
 62
    7
 10
1278.1707579334152
 20
441.01746794423457
 11
1440.1033490424284
 21
472.08669680858407
  0
POINT
  8
_0-0_
 62
    7
 10
1278.1707579334152
 20
441.01746794423457
  0
LINE
  8
_0-0_
  6
CONTINUOUS
 62
    7
 10
1543.8697017461759
 20
329.16327976044727
 11
1565.9346514091992
 21
367.38089364325356
  0
TEXT
  8
_0-0_
 62
    7
 10
1568.6072189726406
 20
357.12849878726706
 40
21.617968000000001
 41
1
 50
0
  1
ﾌﾟﾗｲﾏｰ
  0
LINE
  8
_0-0_
  6
CONTINUOUS
 62
    7
 10
1543.2458505072696
 20
266.14752069256542
 11
1577.835297784
 21
326.05820078158763
  0
POINT
  8
_0-0_
 62
    7
 10
1543.2458505072696
 20
266.14752069256542
  0
TEXT
  8
_0-0_
 62
    7
 10
1579.1361840442819
 20
314.17032129496988
 40
21.617968000000001
 41
1
 50
0
  1
断熱材
  0
POINT
  8
_0-0_
 62
    7
 10
1543.8697017461759
 20
329.16327976044727
  0
LINE
  8
_0-0_
  6
CONTINUOUS
 62
    7
 10
1530.3697017461777
 20
342.66327976044545
 11
1569.7383489276808
 21
410.85177690406204
  0
POINT
  8
_0-0_
 62
    7
 10
1530.3697017461777
 20
342.66327976044545
  0
TEXT
  8
_0-0_
 62
    7
 10
1570.9741124371531
 20
400.67951737022145
 40
21.617968000000001
 41
1
 50
0
  1
ﾗﾝｽﾛｯｸｼｰﾄ
  0
POINT
  8
_0-0_
 62
    7
 10
1449.2909597838056
 20
343.69988575301727
  0
LINE
  8
_0-0_
  6
CONTINUOUS
 62
    7
 10
1449.2909597838056
 20
343.69988575301727
 11
1478.2046051950149
 21
393.77978863726207
  0
TEXT
  8
_0-0_
 62
    7
 10
1480.3432551872706
 20
384.39701900570913
 40
21.617968000000001
 41
1
 50
0
  1
FJﾃｰﾌﾟ
  0
TEXT
  8
_0-0_
 62
    7
 10
1439.5185447143506
 20
414.19905765094086
 40
21.617968000000001
 41
1
 50
0
  1
ﾗﾝｽﾛｯｸｷｬﾝﾄ
  0
LINE
  8
_0-0_
  6
CONTINUOUS
 62
    7
 10
1392.1618805657633
 20
345.20529695170558
 11
1437.6846363632199
 21
424.0530228934515
  0
POINT
  8
_0-0_
 62
    7
 10
1392.1618805657633
 20
345.20529695170558
  0
TEXT
  8
_0-0_
 62
    7
 10
1279.0022828946867
 20
1111.4123225241849
 40
30
 41
1
 50
0
  1
断熱材
  0
LINE
  8
_0-0_
  6
CONTINUOUS
 62
    7
 10
1368.4731196272833
 20
835.99224806201551
 11
1523.9254991561138
 21
991.44462759084604
  0
LINE
  8
_0-0_
  6
CONTINUOUS
 62
    7
 10
1375.5441874391481
 20
835.99224806201551
 11
1523.9254991561129
 21
984.37355977898028
  0
LINE
  8
_0-0_
  6
CONTINUOUS
 62
    7
 10
1382.615255251013
 20
835.99224806201551
 11
1523.9254991561138
 21
977.30249196711543
  0
LINE
  8
_0-0_
  6
CONTINUOUS
 62
    7
 10
672.13606690525205
 20
1633.3565543671132
 11
1706.8525777203677
 21
1633.3565543671132
  0
LINE
  8
_0-0_
  6
CONTINUOUS
 62
    7
 10
672.13606690525205
 20
1553.3565543671132
 11
1706.8525777203677
 21
1553.3565543671132
  0
LINE
  8
_0-0_
  6
CONTINUOUS
 62
    7
 10
672.13606690525205
 20
1473.3565543671132
 11
1706.8525777203677
 21
1473.3565543671132
  0
LINE
  8
_0-0_
  6
CONTINUOUS
 62
    7
 10
1189.4943223128103
 20
1633.3565543671132
 11
1189.4943223128103
 21
1473.3565543671132
  0
TEXT
  8
_0-0_
 62
    7
 10
1213.4943223128103
 20
1577.3565543671132
 40
20
 41
1
 50
0
  1
構造：ＲＣ造
  0
TEXT
  8
_0-0_
 62
    7
 10
1213.4943223128103
 20
1497.3565543671132
 40
20
 41
1
 50
0
  1
下地：コンクリートスラブ
  0
TEXT
  8
_0-0_
 62
    7
 10
696.13606690525205
 20
1577.3565543671132
 40
20
 41
1
 50
0
  1
図面番号：dan-kikai-SP-kabe-01
  0
TEXT
  8
_0-0_
 62
    7
 10
696.13606690525205
 20
1497.3565543671132
 40
20
 41
1
 50
0
  1
施工部位：壁面立上り(入り巾木)
  0
ENDSEC
  0
EOF
